Oops, an error
Loading. Please wait.

Overture 1928 Tab

version 1
version 1
40,174 views 27 this week
4 commentsread comments
1 2 3 4 5
x 5
add to favorites
launch autoscroll
font size
0
reset
how to read this tab
guitar tuner
Autoscroll
slow
fast
+/-
esc
set tempo
stop
Help us to improve Ultimate-Guitar.com Take our survey!
×
Author
Dream Theater
"Overture 1928"
From The Album "Scenes From A Memory"

Tuning: Standard E

e|--------------------------------------------------------|-------------------------|
B|--------------------------------------------------------|-------------------------|
G|---------------------------------------------------7-7-7|-7-7-7-7-7---7-7-7--7-7-7|
D|---------------------------------------------------7-7-7|-7-7-7-7-7---7-7-7--7-7-7|
A|---5-5-5-5-5---5-5-5--5-5-5----5-5-5-5-5----5-5-5--5-5-5|-5-5-5-5-5---5-5-5--5-5-5|
E|--------------------------------------------------------|-------------------------|
    PM - - - - - - - - - - - - - - - - - - - - - /


[Riff 1 Section]

e|----------------------|------------------------|----------------------|-----------|
B|-7---7---7-7---7---10-|-9---9---9-9---9-----10-|-7---7---7-7---7---10-|-9---9---9-|
G|-7---7---7-7---7---7--|-7---7---7-7---7-----7--|-7---7---7-7---7---7--|-7---7---7-|
D|-7---7---7-7---7---7--|-7---7---7-7---7-----7--|-7---7---7-7---7---7--|-7---7---7-|
A|----------------------|------------------------|----------------------|-----------|
E|----------------------|------------------------|----------------------|-----------|


[Fill]

e|-----------------------------------------------------|
B|-9-10-9-7--------------------------------------------|
G|----------9-7-6-9-7-6--------------------------------|
D|----------------------9-7-6-9-7-6--------------------|
A|----------------------------------9-7-5-9-7-5--------|
E|----------------------------------------------9-7-5--|
                        PM - - - - - - -  - - - - /


[Riff 2 Section]

e|---------------------------------|---------------------------------|----|
B|-------------0---------------0---|-------------0---------------0---|----|
G|---------2-----------2-----------|---------4-----------4-----------|----|
D|-----2-------------------2-------|-----4-------------------4-------|----|
A|---------------------------------|-2-------------------------------|----|
E|---------------------------------|---------------------------------|----|

e|---------------------------------|---------------------------------|----|
B|-------------0-------------------|-------------0-------------------|----|
G|---------2-----------------------|---------------------3-----------|----|
D|-----2---------------------------|---------4---------------4-------|----|
A|-0-------------------------------|-----4-----------------------4---|----|
E|---------------------0-------0---|-2-------------------------------|----|

e|---------------------------------|---------------------------------|----|
B|-------------0---------------0---|-------------0---------------0---|----|
G|---------2-----------2-----------|---------4-----------4-----------|----|
D|-----2-------------------2-------|-----4-------------------4-------|----|
A|-0-------------------------------|-2-------------------------------|----|
E|---------------------------------|---------------------------------|----|

e|-------------3-------------------|---------------------------------|----|
B|---------------------3-----------|-------------8-----------7-------|----|
G|---------5-------------------5---|---------7-----------------------|----|
D|-----5---------------------------|-----7---------------------------|----|
A|-3-------------------------------|-5-------------------------------|----|
E|---------------------------------|---------------------------------|----|


[1:02]

e|----------------------|------------------------|-------------------------|
B|----------------------|------------------------|-------------------------|
G|----------------------|------------------------|-------------------------|
D|----------------------|------------------------|-------------------------|
A|----------------------|-5-4--------------------|-------------------------|
E|-0-2-4-6----0--0-0-0--|-----2^4-4---0--0--0-0-0|-0-2-4-6----0---0tr~~~---|
             PM - - /                PM - - - -/                 PM

e|----------------------|---------------------------|------------|
B|----------------------|---------------------------|------------|
G|----------------------|---------------------------|------------|
D|-----4^6-6----2tr~~~--|---------------------------|------------|
A|-5-7------------------|---------------------------|------------|
E|----------------------|-0-2-4-6-------0---0-0-0-0-|------------|
                PM                      PM - - - -/

e|---------------------------|---------------------------|--------------|
B|---------------------------|---------------------------|--------------|
G|---------------------------|---------------------------|--------------|
D|---------------------------|---------------------------|--------------|
A|-5-4-----------------------|---------------------------|--------------|
E|-----2^4-4----0---0---0-0--|-0-2-4-6-------0---0tr~~~--|--------------|
               PM - - - -/                    PM

e|--------------------------------------|---------------------------------|
B|--------------------------------------|---------------------------------|
G|--------------------------------------|---------------------------------|
D|-----4-6------------------------------|-2-2-2-2--2-2-2-2-2-2-2--2-2-2-2-|
A|-5-7-----7-5-----7-----5-----3-1------|-2-2-2-2--2-2-2-2-2-2-2--2-2-2-2-|
E|-------------6-4---6-----4-------2-1--|-0-0-0-0--0-0-0-0-0-0-0--0-0-0-0-|
                                         PM - - - - - -  - - - - - - - /

[Keyboard Solo] 

(guitar plays riff 1)
e|---------------|------------------------------|----------------|
B|---------------|------------------------------|---7-8--10--8---|
G|--------4~-----|-11-11-11b----r--7--9-/11---9~|-9--------------|
D|---------------|------------------------------|----------------|
A|---------------|------------------------------|----------------|
E|-0-2-3---------|------------------------------|----------------|

e|-------------------|-----------------|--------------------------|
B|-7---8---7-^8^7----|-----------------|--------------------------|
G|----------------9~-|---6-9-7--9/11---|-11b-r--9--7----9--11^12--|
D|-------------------|-7---------------|--------------------------|
A|-------------------|-----------------|--------------------------|
E|-------------------|-----------------|--------------------------|

e|-------------------------------------|---------------------------------|
B|-------------------------------------|-----14-17b-r--------------16/17-|
G|---------9-11-12-14-----12-11--14--14|---15-------------15b-r----------|
D|---------9---------------------------|-16------------16-------16-------|
A|----------------------------------==-|---------------------------------|
E|-------------------------------------|---------------------------------|

e|-------14-17^14-------------------|----------------------------|
B|-14^17----------17-14-------------|17b-r-----------------------|
G|----------------------16-15-------|---------15b-r--------------|
D|----------------------------16-14-|------16-------16-----------|
A|----------------------------------|-------------------13^14-14-|
E|----------------------------------|----------------------------|

e|------------------|---------------------------------|-------18-21^18------------|
B|------------------|-----14-17b-r--------------16/17-|-17-19---------19-17-------|
G|-15/13/11--13/11/9|---15-------------15b-r----------|---------------------16-14-|
D|--x--x-x----x--x-x|-16------------16-------16-------|---------------------------|
A|-13/11/9---11/9/7-|---------------------------------|---------------------------|
E|------------------|---------------------------------|---------------------------|

e|----------------------------------14--------------------------|
B|-17-16-17-16-----------------------------------------------14-|
G|-------------17-16-15-14-15-16-17----16-15-14-----------------|
D|-----------------------------------------------16-14-15-16----|
A|--------------------------------------------------------------|
E|--------------------------------------------------------------|

e|--------------------------------14-16-17--19b~|
B|------------------------14-16-17--------------|
G|---------------14-16-17-----------------------|
D|16-15-14-16-17--------------------------------|
A|----------------------------------------------|
E|----------------------------------------------|


[Guitar Plays Riff 2]

e|-----------------|-----------------|-----------------|------------------|
B|-----------------|-----------------|-----------------|------------------|
G|/8-----9-----10--|-8-----4---------|-4~-^6-----6b-r--|----6-8-9---------|
D|-----------------|---------------6-|-----------------|-/6---------------|
A|-----------------|-----------------|-----------------|------------------|
E|-----------------|-----------------|-----------------|------------------|

e|-----------------|-9^11-11b~-----|-b11-----r-9---|-----------------11|
B|----9^12-12------|---------------|-------------9-|-12b-----------12--|
G|-11--------------|---------------|---------------|-------------11----|
D|-----------------|---------------|---------------|-------------------|
A|-----------------|---------------|---------------|-------------------|
E|-----------------|---------------|---------------|-------------------|

e|-14b-r-11-------------------------------------------|-------------------|
B|----------12----12-------12--------12---------------|-------------------|
G|-------------11----11\9------9--8---------11--9--8--|-------------------|
D|---------------------------------------9------------|-------------------|
A|----------------------------------------------------|-------------------|
E|----------------------------------------------------|-------------------|


[Guitar + Keyboard]

e|------------------------------|-------------------------------------|---|
B|-------------------12-10------|-------------------------------------|---|
G|-9------------9-12-------12-11|-9~-------------------------11-9~----|---|
D|---12-10-9-10-----------------|---12-10-9~-------------9-12---------|---|
A|------------------------------|-------------12-10-9-10--------------|---|
E|------------------------------|-------------------------------------|---|

e|------------------------------|---------------------------------|
B|-------------------12-10------|---------------------------------|
G|-9------------9-12-------12-11|-9~--------------------------11-9|
D|---12-10-9-10-----------------|---12-10-9~-------------9-12-----|
A|------------------------------|-------------12-10-9-10----------|
E|------------------------------|---------------------------------|

e|-------------------|
B|-------------------|
G|-------------------|
D|12-10-9------------|
A|--------12-10-9^10-|
E|-------------------|

e|------------------------------|---------------------------------|
B|-------------------12-10------|---------------------------------|
G|-9------------9-12-------12-11|-9~--------------------------11-9|
D|---12-10-9-10-----------------|---12-10-9~-------------9-12-----|
A|------------------------------|-------------12-10-9-10----------|
E|------------------------------|---------------------------------|

e|----------------------|
B|----------------------|
G|----------------------|
D|-12-10-9--------------|
A|---------12-10-9------|
E|------------------12--|

e|-------------------------------------|-----------------------------|
B|-------------------------------------|-----------------------------|
G|-------------------------------------|-----------------------------|
D|-------------------------------------|-----------------------------|
A|-7-6---6-5---5-4---4-3--3-2-1-0- ----|-------------3-3-2-2-1-0---0-|
E|-----0-----------0-------------------|-3-3-2-2-1-1-----------------|
 PM- - - - - - - - - - - - - -  - - - - - - - - - - - - - - - - - -/

e|---------------------------------------------|-----------------------------|
B|---------------------------------------------|-----------------------------|
G|---------------------------------------------|-----------------------------|
D|---------------------------------------------|-----------------------------|
A|-7-6---6-5---5---5-4---4-3---3--3-2-1-0- ----|-------------3-3-2-2-1-0---0-|
E|-----0-----0---------0-----0-----------------|-3-3-2-2-1-1-----------------|
 PM- - - - - - - - - - - - - -  - - - - - - - - - - - - - - - - - - - - - -/

e|-----------------------------|-----------|--------------|
B|-----------------------------|-----------|--------------|
G|-----------------------------|-8-------8-|-7------5-----|
D|-----------------------------|-6-------6-|-6------6-----|
A|-------------3-3-2-2-1-0-----|-----------|--------------|
E|-3-3-2-2-1-1-----------------|-----------|------------- |
  PM- - - - - - - - - - -/

e|-----------|------------|----------|-----------|------------|-----------|
B|-----------|------------|----------|-----------|------------|-----------|
G|-5^7^8--10-|-7-----8----|-5------5-|-4-------2-|-2^5^6----8-|-4----5----|
D|-6------6--|-6-----6----|-3------3-|-3-------3-|-3--------3-|-3----3----|
A|-----------|------------|----------|-----------|------------|-----------|
E|-----------|------------|----------|-----------|------------|-----------|

e|-----------------------|---------------------|
B|-----------------------|---------------------|
G|-11---11-10-8----------|-13--13-11-10--------|
D|-9----9--9--9----------|-11--11-11-11--------|
A|-----------------------|---------------------|
E|-----------------------|---------------------|

e|---------------------------------|-----------------------------------|
B|---------------------------------|-----------------------------------|
G|-8-8-8-8-----8-8-8-8-----7-7-7---|---7-7-7-7-------------------------|
D|-6-6-6-6-----6-6-6-6-----6-6-6---|---6-6-6-6-------------------------|
A|-6-6-6-6-----6-6-6-6-----6-6-6---|---6-6-6-6-------------------------|
E|-4-4-4-4-----4-4-4-4-----4-4-4---|---4-4-4-4-------------------------|



************************************

| ^      hammer on/pull off
| ~      vibrato
| ~~     hard vibrato
| tr~ ~  trill
| b      bend/pre bend
| r      release
| PM     palm mute
| x      mute
| /      slide up
| \      slide down

************************************
Suggest correction
comments
print report bad tab
4 comments total. Showing first comments.
0 reply
speedmetal777 92 Nov 03, 2006 09:56 PM

hey good job on the tab but its gonna take me a while to get petrucci's style down

0 reply
_RATM_ 47 Jul 22, 2007 09:47 PM

i love this tab,,,but the part right after the keyboard plus piano is wrong(the reoccuring theme in the cd),,otherwise this is excellent

0 reply
Yoaville 10 Jun 11, 2008 09:53 AM

good job man! great tab

guest
You may want to rate the tab now too:
select rating
Wanna post a correction for this tab? Suggest correction