Oops, an error
Loading. Please wait.

Overture 1928 Bass Tab

version 2
version 2
1,199 views 1 this week
1 commentread comment
1 2 3 4 5
please rate
add to favorites
launch autoscroll
font size
0
reset
guitar tuner
Autoscroll
slow
fast
+/-
esc
set tempo
stop
Help us to improve Ultimate-Guitar.com Take our survey!
×
Author
Difficulty
advanced
              SIX DEGREES OF INNER TURBULENCE I.OVERTURE (Bassline)
                          As recorded by Dream Theater
          (From the 2002 Double Album SIX DEGREES OF INNER TURBULENCE)

Music by Dream Theater
Transcribed by Thomas Puckett

Gtr I (B E A D G C) - 'John Myung :: Six String Bass [CGDAEB]'

 4/4
  Gtr I
  Wx3
|--------|
|--------|
|--------|
|--------|
|--------|
|--------|


            Q=120
 3/4       4/4
  H.        W          H    H      Q  Q  Q  Q
|---------|----------|-----------|-------------|
|---------|----------|-----------|-------------|
|---------|----------|-----------|-------------|
|---------|----------|-8----6----|-5--4--2--0--|
|---------|-3--------|-----------|-------------|
|---------|----------|-----------|-------------|


                                        H.=H        Q=90
                    |-3-|    |-3-|                     |3|
  Q  Q  H      +Q   E E E Q  E E E   Q   Q  Q  Q    Q  Q E H
|------------|---------------------|--------------|-------------|
|------------|---------------------|--------------|-------------|
|------------|---------------------|--------------|-------------|
|-1----------|---------------------|----/8--6--4--|-------------|
|----4--3----|-(3)--3-3-3-3--3-3-3-|-3------------|-------------|
|------------|---------------------|--------------|-1--1-1-1----|


       |-3-|
  +Q   E E E Q  +E  E   H..       E   H    H      W
|---------------------|-------------|-----------|------|
|---------------------|-------------|-----------|------|
|---------------------|-------------|------7----|------|
|---------------------|-------------|-----------|------|
|-------------------8-|-7---------7-|-5---------|-3----|
|-(1)--1-1-1-1--(1)---|-------------|-----------|------|


                           |-3-|              |3|
  W          W          Q  E E E E E E E   Q  Q E H
|----------|----------|------------------|-------------|
|----------|----------|------------------|-------------|
|----------|----------|------------------|-------------|
|----------|-1--------|------------------|-------------|
|-1--------|----------|-3--3-3-3-3-1-0---|-------------|
|----------|----------|----------------3-|-1--1-1-1----|


       |-3-|
  +Q   E E E Q  +E  E   W          H    H      W
|---------------------|----------|-----------|------|
|---------------------|----------|-----------|------|
|---------------------|----------|-----------|------|
|---------------------|----------|-----------|------|
|-------------------8-|-7--------|-6----5----|-4----|
|-(1)--1-1-1-1--(1)---|----------|-----------|------|


                                |-3-|
  W          W          H.      E E E   Q.   E H
|----------|----------|---------------|-------------|
|----------|----------|---------------|-------------|
|----------|----------|---------------|-------------|
|----------|----------|---------------|-------------|
|-3--------|-2--------|-1-------1-1-1-|-3----3-3----|
|----------|----------|---------------|-------------|


  Q=115
  PM-------------------------------------|        PM     PM-|
  E Q  E E Q  E   E Q  E E Q  E   E Q  E E Q  E   E Q  E Q  Q
|---------------|---------------|---------------|---------------|
|---------------|---------------|---------------|---------------|
|--------7------|--------5------|--------4------|-5-------------|
|-7-------------|-5-------------|-3-------------|---------------|
|---------------|---------------|---------------|--------3--3---|
|---------------|---------------|---------------|---------------|


  PM     PM       PM     PM       PM     PM
  E Q  E E Q  E   E Q  E E Q  E   E Q  E E Q  E   E Q  E E Q  E
|---------------|---------------|---------------|----------------|
|---------------|---------------|---------------|----------------|
|--------7------|--------6------|-7------4------|-3------5-------|
|-7-------------|-5-------------|---------------|----------------|
|---------------|---------------|---------------|----------------|
|---------------|---------------|---------------|----------------|


  Q=90
     |3|             |-3-|
  Q  Q E H      +Q   E E E H      Q.   E H      H    H
|-------------|-----------------|-------------|-----------|
|-------------|-----------------|-------------|-----------|
|-------------|-----------------|-------------|-----------|
|-------------|-----------------|-------------|-----------|
|-------------|-----------------|-7----5-3----|-6----5----|
|-1--1-1-1----|-(1)--1-1-1-1----|-------------|-----------|


                                            |-3-|
  H    H      W          W          H.      E E E   Q.   E H
|-----------|----------|----------|---------------|-------------|
|-----------|----------|----------|---------------|-------------|
|------6----|----------|----------|---------------|-------------|
|-----------|----------|----------|---------------|-------------|
|-4---------|-3--------|-2--------|-1-------1-1-1-|-3----3-3----|
|-----------|----------|----------|---------------|-------------|


  Q=130
  q  Q  q  Q    q  q  q  Q    q  H.
|-------------|-------------|----------|
|-------------|-------------|----------|
|-------------|-------------|----------|
|-------------|-------6-----|-9--------|
|-4-----3-----|-2--1--------|----------|
|-------------|-------------|----------|


             Q=120
  W          q  Q  q  Q    q  q  Q  S S E    q  Q  q  Q
|----------|-------------|-----------------|-------------|
|----------|-------------|-----------------|-------------|
|----------|-------------|----------7h9s7\-|-------------|
|----------|-3-----3-----|-3--3------------|-------------|
|----------|-------------|-----------------|-4-----3-----|
|----------|-------------|-----------------|-------------|


  q  Q  q  Q    q  Q  q  Q    q  q  Q  S S E
|-------------|-------------|-----------------|
|-------------|-------------|-----------------|
|-------------|-------------|-----------------|
|-------------|-3-----3-----|-3--3------------|
|-5-----4-----|-------------|----------5h7s5\-|
|-------------|-------------|-----------------|


  q  Q  q  Q    W          +W
|-------------|----------|--------|
|-------------|----------|--------|
|-------------|----------|--------|
|-------------|----------|--------|
|-4-----0-----|-5--------|-(5)----|
|-------------|----------|--------|


    Q.=135
   12/8
         PM--|                         PM----------|
    Q.   E E E Q.   +Q   E   Q.   +Q   E E E E E E E  3x Q.   E E E H.
||-------------------------|--------------------------||------------------|
||o------------------------|-------------------------o||------------------|
||-------------------------|--------------------------||------------------|
||-------------------------|--------------------------||------------------|
||o------------------------|-------------------------o||------------------|
||--4----4-4-4-4----(4)--4-|-4----(4)--4-4-4-4-4-4-4--||-4----4-4-4-4-----|


                      PM--------------------|
  H.      H.          E E E E E E E E E E E E  3x Q.   Q.   Q.   Q.
|-----------------||---------------------------||----------------------|
|-----------------||o-------------------------o||----------------------|
|-----------------||---------------------------||----------------------|
|-----------------||---------------------------||----------------------|
|-5-------4-------||o-------------------------o||-7----6----5----4-----|
|-----------------||--4-4-4-4---4---4-4-4-4-4--||----------------------|


  H.      Q.   Q.     H.      Q.   Q.
|-------------------|-------------------|
|-------------------|-------------------|
|-------------------|-------------------|
|-------------------|-------------------|
|-------------------|-------------------|
|-4\----------------|-4\----------------|


  H.      Q.   Q.     Q.   Q.   Q.   Q.
|-------------------|----------------------|
|-------------------|----------------------|
|-------------------|----------------------|
|-------------------|----------------------|
|-------------------|-7----6----5----4-----|
|-4\----------------|----------------------|


    PM-------------------------
    E E E E E E E E E E E E  8x
||---------------------------||
||o-------------------------o||
||---------------------------||
||---------------------------||
||o-------------------------o||
||--1-1-1-1---1---1-1-1-1-1--||


 -------------------------------------------------|
  E E E E E E E E E E E E   E E E E E E E E E E E E
|-------------------------|--------------------------|
|-------------------------|--------------------------|
|-------------------------|--------------------------|
|-------------------------|--------------------------|
|-------------------------|-2-2-2-2---2---2-2-2-2-2--|
|-1-1-1-1---1---1-1-1-1-1-|--------------------------|


  PM------------------------------------------------------------------------|
  E E E E E E E E E E E E   E E E E E E E E E E E E   E E E E E E E E E E E E
|-------------------------|-------------------------|-------------------------|
|-------------------------|-------------------------|-------------------------|
|-------------------------|-------------------------|-------------------------|
|-------------------------|-------------------------|-------------------------|
|-------------------------|-2-2-2-2-2-2-3-3-3-3-3-3-|-4-4-4-4---4---4-4-4-4-4-|
|-4-4-4-4---4---4-4-4-4-4-|-------------------------|-------------------------|


  PM--------------------|        PM--|      PM--|        PM--|      PM--|
  E E E E E E E E E E E E   Q.   E E E Q.   E E E   Q.   E E E Q.   E E E
|-------------------------|-----------------------|-----------------------|
|-------------------------|-----------------------|-----------------------|
|-------------------------|-----------------------|-----------------------|
|-------------------------|-----------------------|-----------------------|
|-2-2-2-2---2---2-2-2-2-2-|-1----1-1-1-1----1-1-1-|-2----2-2-2-2----2-2-2-|
|-------------------------|-----------------------|-----------------------|


  Q=150
 7/8          4/4         7/8           4/4
  H..          H    H      Q.   Q.   E   H    H
|-----------||-----------|-------------|-----------|
|-----------||-----------|-------------|-----------|
|-----------||-----------|-------------|-----------|
|-7---------||-5----3----|-2----0------|-----------|
|-----------||-----------|-----------4-|-2----0----|
|-----------||-----------|-------------|-----------|


                   Q=130
 6/4
                      |-3-| |-3-|
  H    H    H      Q  E E E Q Q Q Q   Q
|----------------|-----------------------|
|----------------|-----------------------|
|----------------|-----------------------|
|-6----5----4----|-3--------3-3-3-3\-----|
|----------------|-----------------------|
|----------------|----1-1-1--------------|


 4/4
  PM-------------------------------------
  Q  Q  H      Q  Q  H      Q  Q  Q  Q
|------------|------------|-------------|
|------------|------------|-------------|
|------------|------------|-------------|
|-7----------|-7----------|-6--------6--|
|------------|------------|-------------|
|------------|------------|-------------|


 -----------------------------------|
  Q  Q  Q  Q    Q  Q  Q  Q    Q  Q  Q  Q
|-------------|-------------|---------------|
|-------------|-------------|---------------|
|-------------|-------------|---------------|
|-4-----4-----|-2-----2--2--|-0-----0-------|
|-------------|-------------|---------------|
|-------------|-------------|---------------|


  Q  Q  Q  Q    Q  Q  Q  Q    Q  Q  Q  Q    Q  Q  Q  Q    Q  Q  Q  Q
|-------------|-------------|-------------|-------------|--------------|
|-------------|-------------|-------------|-------------|--------------|
|-------------|-------------|-------------|-------------|--------------|
|-5--------5--|-2-----2-----|-7--------7--|-7--------7--|-6--------6---|
|-------------|-------------|-------------|-------------|--------------|
|-------------|-------------|-------------|-------------|--------------|


  Q  Q  Q  Q    Q  Q  H      Q  Q  Q  Q
|-------------|------------|-------------|
|-------------|------------|-------------|
|-------------|------------|-------------|
|-4-----4-----|-3----------|-2-----2--2--|
|-------------|------------|-------------|
|-------------|------------|-------------|


  Q  Q  Q  Q    Q  Q  Q  Q    Q  Q  H
|-------------|-------------|------------|
|-------------|-------------|------------|
|-------------|-------------|------------|
|-1-----1-----|-0--------0--|-2----------|
|-------------|-------------|------------|
|-------------|-------------|------------|


  Q=65
              5/4          4/4
  Wx6          W            W
|------------|------------|------|
|------------|------------|------|
|------------|------------|------|
|------------|------------|------|
|------------|------------|------|
|------------|------------|------|


  Q=130
  E Q  E E Q  E   E Q  E E Q  E   E Q  E E Q  E   E Q  E Q  Q
|---------------|---------------|---------------|---------------|
|---------------|---------------|---------------|---------------|
|--------7------|--------5------|--------4------|-5-------------|
|-7-------------|-5-------------|-3-------------|---------------|
|---------------|---------------|---------------|--------3--3---|
|---------------|---------------|---------------|---------------|


                                       H.=H
  E Q  E E Q  E   E Q  E E Q  E   E Q  E E Q  E   E Q  E E Q  E
|---------------|---------------|---------------|----------------|
|---------------|---------------|---------------|----------------|
|--------7------|--------6------|-7------4------|-3------5-------|
|-7-------------|-5-------------|---------------|----------------|
|---------------|---------------|---------------|----------------|
|---------------|---------------|---------------|----------------|


  Q=120
  Q.   E Q.   E   H    H      H    H      H    H
|---------------|-----------|-----------|-----------|
|---------------|-----------|-3---------|-----------|
|---------------|------5----|-----------|------7----|
|-3----3-3----3-|-6---------|------5----|-8---------|
|---------------|-----------|-----------|-----------|
|---------------|-----------|-----------|-----------|


                              H.=H        Q=H.=H
                             3/4           7/8
  Q.   E Q.   E   H    H      e E e e E e   e E E E E E E
|---------------|-----------|-------------|---------------|
|-5----5--------|-----------|-------------|---------------|
|---------------|-5----8----|-----------5-|-7-------------|
|--------6----6-|-----------|-5---7-8-----|-----7---8---9-|
|---------------|-----------|-------------|---------------|
|---------------|-----------|-------------|---------------|


          Q=80        Q=100
 3/4       2/4       4/4
  Gtr I
                           |-3-|
  H.        E E E E   H    Q Q Q   Q  Q  Q  Q    H    H
|---------|---------|------------|-------------|-----------|
|---------|---------|------------|-------------|-----------|
|---------|---------|------------|-------------|-----------|
|---------|---------|------7-----|-7-----7-----|-2----4----|
|---------|-7-5-----|----------5-|----------5--|-----------|
|---------|-----7-4-|-5------5---|----5--------|-----------|


            |-3-|
  Q.   E Q  E E E   H.      E E   Q.   E H      Q.   E H      Q.   E H
|-----------------|-------------|-------------|-------------|-------------|
|-----------------|-------------|-------------|-------------|-------------|
|-----------------|-------------|-------------|-------------|-------------|
|-6----4-2--2-1---|---------0-2-|-4-----------|-2-----------|-2-----------|
|---------------4-|-2-----------|-------------|-------------|-------------|
|-----------------|-------------|------2-2----|------0-0----|------0-0----|


  Q=70
  Wx8
|--------|
|--------|
|--------|
|--------|
|--------|
|--------|


  Q=80
                                        6/4
  H    H      Q  Q  H      H    Q  E E   W        +H
|-----------|------------|-------------|-----------------|
|-----------|------------|-------------|-----------------|
|-----------|------------|-------------|-----------------|
|-----------|----1--3----|-------------|-----------------|
|-4----3----|-1----------|-4----3--1---|-----------------|
|-----------|------------|-----------4-|-2--------(2)----|


 4/4
  W          W          Q.   E H      H    H
|----------|----------|-------------|-----------|
|----------|----------|-------------|-----------|
|----------|----------|-------------|-----------|
|----------|----------|-------------|-----------|
|----------|----------|-7----5-3----|-6----5----|
|-1--------|-1--------|-------------|-----------|


  W          W          W          +Q   Q  Q  Q
|----------|----------|----------|----------------|
|----------|----------|----------|----------------|
|----------|----------|----------|------5--2------|
|----------|----------|----------|------------3---|
|-4--------|-4--------|-3--------|-(3)------------|
|----------|----------|----------|----------------|


  W          W          W          H    Q  Q
|----------|----------|----------|-------------|
|----------|----------|----------|-------------|
|----------|----------|----------|-------------|
|-1--------|-1--------|-1--------|-1-----------|
|----------|----------|----------|------4--2---|
|----------|----------|----------|-------------|


     |-3-|    |-3-|      |-3-|    |-3-|      |-3-|
  Q  E E E Q  E E E   Q  E E E Q  E E E   Q  E E E Q  Q
|-------------------|-------------------|-----------------|
|-------------------|-------------------|-----------------|
|-------------------|-------------------|-----------------|
|-------------------|-------------------|-------------5---|
|-0--0-0-0-0--0-0-0-|-0--0-0-0-0--0-0-0-|-0--0-0-0-0------|
|-------------------|-------------------|-----------------|


  H    H      W
|-----------|------*|
|-----------|------*|
|-----------|------*|
|-3----5----|-7----*|
|-----------|------*|
|-----------|------*|


Duration Legend
---------------
W - whole; H - half; Q - quarter; E - 8th; S - 16th; T - 32nd; X - 64th; a - acciaccatura
+ - note tied to previous; . - note dotted; .. - note double dotted
Uncapitalized letters represent notes that are staccato (1/2 duration)
Irregular groupings are notated above the duration line
Duration letters will always appear directly above the note/fret number it represents the
duration for.  Duration letters with no fret number below them represent rests.  Multi-
bar rests are notated in the form Wxn, where n is the number of bars to rest for.  Low
melody durations appear below the staff

Tablature Legend
----------------
 h   - hammer-on
 p   - pull-off
 b   - bend
 pb  - pre-bend
 r   - bend release (if no number after the r, then release immediately)
 /\  - slide into or out of (from/to "nowhere")
 s   - legato slide
 S   - shift slide
  - natural harmonic
[n]  - artificial harmonic
n(n) - tapped harmonic
 ~   - vibrato
 tr  - trill
 T   - tap
 TP  - trem. picking
 PM  - palm muting
\n/  - tremolo bar dip; n = amount to dip
 \n  - tremolo bar down
 n/  - tremolo bar up
/n\  - tremolo bar inverted dip
 =   - hold bend; also acts as connecting device for hammers/pulls
 <>  - volume swell (louder/softer)
 x   - on rhythm slash represents muted slash
 o   - on rhythm slash represents single note slash

Misc Legend
-----------
 |  - bar
||  - double bar
||o - repeat start
o|| - repeat end
*|  - double bar (ending)
 :  - bar (freetime)
 $  - Segno
 &  - Coda
Tempo markers -  = BPM(8/16=s8/s16), where s8 = swing 8ths, s16 = swing 16ths
Suggest correction
Give kudos to tab author, rate the tab!
1 2 3 4 5
comments
print report bad tab
1 comment total.
0 reply
Cyxon 42 wrote on August 29 2015, 11:10 am

I think this is Overture,not Overture 1928

guest
You may want to rate the tab now too:
select rating
Please do not post tabs as comments. Select "correction" instead!