Oops, an error
Loading. Please wait.

Overture 19 Bass Tab

1,519 views 3 this week
no commentswrite comment
1 2 3 4 5
please rate
add to favorites
launch autoscroll
font size
0
reset
guitar tuner
Tab Pro tools
  • play this tab
  • loop segment
  • change instrument
  • show fretboard
  • metronome
×
Best way to learn
"Overture 19"
Autoscroll
slow
fast
+/-
esc
set tempo
stop
Dream Theater - Overture 1928
Tabbed By: Xavier
EMail: Dragon5884@Juno.com


SCENE TWO: I. OVERTURE 1928

This peace is written for a four string, but is played on a six string....
so email me if anything is wrong... Dragon5884@Juno.com Peace..


		  (0:27)  Riff A
G---------------|-----------------------------------------------------------
D---------------|---------------------------------------4-6-----4-6---------
A-5-5-5--5-5-5--|-5-5-5-5-5-5-5-5-5-5-5-5-5-5-5-5-5-5-5-----5-5-----5-5-5---
E---------------|-----------------------------------------------------------
  Fade in...

G------------------------------------------------------------------------|-
D---------4-6-----4-6-------------------------------------4-6-----4-6----|-
A-5-5-5-5-----5-5-----5-5-5-5-5-5-5-5-5-5-5-5-5-5-5-5-5-5-----5-5-----5-5|-
E------------------------------------------------------------------------|-


(0:41) Play this "endless" scale, faster and faster as you can!
(you'll see why I am saying "endless" when you try to play... heheh)
G-13/14-13-11\9-----------------------------------------------------------
D---------------12-11/14-12-11\9------------------------------------------
A--------------------------------12-11/14-12-11-9-------------------------
E-------------------------------------------------12-10/12-12-10-9\7------

  (0:44)				   (1:01)
G----------------------------------------|---------------------------------
D----------------4~~---------------------|---------------------------------
A-------2~~--------------2~~--3~~--5~~~~-|---------------------5-4---------
E--5~~-------5~~-----5~~-----------------|-0-2-4-6-4-0--0-0-0------2-4-2-0-

G----------------------------------------------------------------------------
D-----------------------------4-6--------------------------------------------
A-------------------------5-7----------------2/4---------------------5-4-----
E-0-0--0-2-4-6-4-0--0-0-0---------0--0\2-4-6------0-2-4-6-4-0--0-0-0-----2-4-

G--------------------------------------------------------------------------
D-----------------------------------4-6------------------------------------
A-------------------------------5-7-----7-5-----7---5---4/2----------------
E-2-0--0-0---0-2-4-6-4-0--0-0-0-------------7-4---7---4-----5/4-3-2--0-0-0-

		      (1:18)   (1:33)
G-------------------|--------|---------------------------------------------
D-------------------|--Riff--|------4-5-------------------------------2~~--
A-------------------|----A---|-5~~------7-----------7~~--5~----2~----------
E-0-0-0-0-0---0-0-0-|--------|-------------7~~--3~~---------5~----3~~------

	 (1:52)
G-------|--------------------------------------------------3----------------
D-------|----4---2---------2-------2-2-4----4--2-------2-2---6-4-6-4-2------
A-5~----|----------4-2-4-------4-4---------------4-2-4----------------------
E----5~-|-2--------------2----------------2---------------------------------

G-----------------------------------9-11-14-11~-----------------------------
D---4---2---------2--9\11-9----9-11---------------------------2-4---2/4-2---
A---------4-2-4-2-----------12----------------------4-2-0-2-4-------------5-
E-2-----------------------------------------------2-------------------------

		   (2:08)
G-----------------|---------------------------------------------------------
D-------2-2-2--2~-|--------------4~~----------------------------------------
A-2-4-3-----------|------2~~-------------2~~-3~~--5~~--4~~~--2~~------------
E-----------------|-5~~------5~~-----5~~--------------------------4~~--5~~--

				(2:45)
G----------------------------|---------------------------|----------
D----------------------------|---------------------------|----------
A-4~~~~--2~~-------------2~~-|-3----5-----2-3---5----2---|----------
E------------4~~~~---5~~-----|--------5-----------5----4-|----------

  (2:53)
G-------------0-4-2-0-----------------------------------------|---
D-2-0-------2---------4-2-0---------------0-4-2-0-------0-----|---
A-----3-2-3-----------------3-2-0-------2---------3-0-2---0---|---
E---------------------------------3-2-3---------------------0-|---

 (2:58) Riff B 2x
G---------------------------------------------------------|-------------
D-2-----1-------------------------------------------------|-------------
A------------5-4---4-----------------------3-3-2-2-1-0--2-|-------------
E---0-0----0-----5---5-4-6-5-4-3-3-3-2-2-0----------------|-3-3-3-2-2-0-

		(3:08)			      (3:16)
G-------------|-----------------------------|--------------------------
D-------------|-----------------------------|--------------------------
A-3-3-2-2-1-0-|-----------------------------|--------------------------
E-------------|-4-4-4-4-4-4-4-4-4-4-4-4-4-4-|-1-1-1-1-1-1-1-1-1-1-1-1--


  (3:25)			        (3:33) Then segue to STRANGE DEJA VU
G-------------------------------------|----------------
D-------------------------------------|----------------
A-2-2-2-2-2-2-2-2-2-4-4-4-4-4-4-4-4-4-|----------------
E-------------------------------------|--4-4-4--4-4-4--
comments
We did not receive enough feedback on this tab! Please rate:
print report bad tab
1 2 3 4 5
I want to post or [tab]
guest
You may want to rate the tab now too:
select rating
Please do not post tabs as comments. Select "correction" instead!