Oops, an error
Loading. Please wait.

Panic Attack Tab

version 1
version 1

Whole song

Interactive

123,526 views 93 this week
15 commentsread comments
1 2 3 4 5
excellent!
x 32
add to favorites
launch autoscroll
font size
0
reset
how to read this tab
guitar tuner
Autoscroll
slow
fast
+/-
esc
set tempo
stop
Help us to improve Ultimate-Guitar.com Take our survey!
×
Author
Tuning
D# G# C# F# A# D#
Band - Dream Theater
Song - Panic Attack
Temp - 125

Gtr I (Bb Eb Ab Db F Bb) - 'JP Dist L'
Gtr II (Bb Eb Ab Db F Bb) - 'JP Dist R'
Gtr III (Bb Eb Ab Db F Bb) - 'JP Lead M'
Gtr IV (Bb Eb Ab Db F Bb) - 'Harmony L'

[Intro]

 4/4
  Gtrs I, II
                PM--------------------------------|
D#|------------||----------------------------------|
A#|------------||o---------------------------------|
F#|------------||----------------------------------|
C#|------------||----------------------------------|
G#|------------||o-------------------2-------------|
D#|------------||--5-2-2-4-2-2-5-2-2---2-2-5-2-4-2-|

 PM-------------------------------|
D#|---------------------------------|
A#|---------------------------------|
F#|---------------------------------|
C#|---------------------------------|
G#|-------------------5-----4---2---|
D#|-5-2-2-4-2-2-5-2-2---2-2---2---2-|

  PM-----------------------------------------------------------------|
D#|---------------------------------|---------------------------------|
A#|---------------------------------|---------------------------------|
F#|---------------------------------|---------------------------------|
C#|---------------------------------|---------------------------------|
G#|-------------------2-------------|-------------------5-----4---2---|
D#|-5-2-2-4-2-2-5-2-2---2-2-5-2-4-2-|-5-2-2-4-2-2-5-2-2---2-2---2---2-|

 PM----------------------------------------------------------=-------|
D#|---------------------------------|------------------------------------||
A#|---------------------------------|-----------------------------------o||
F#|---------------------------------|------------------------------------||
C#|---------------------------------|------------------------------------||
G#|-3-3-3-3-3-3-3-3-3-3-3-3---------|-2-2-2-2-2-2-2-2-2-2-2-2-----------o||
D#|-------------------------4-4-4-4-|-------------------------3-3-3-3----||

      C5     GbBb5bC5     GbBb5b      C5       GbBb5b Ab5/Eb  Bb5
     5/8                                             6/8
      Gtr I                           Gtrs I, II
D#|-------------|-------------||-||---------------||-----------------|
A#|o------------|------------o||-||o-------------o||-3-3-3-3---------|
F#|---------5---|--------5----||-||---------5-----||-2-2-2-2-4-4-4-4-|
C#|--4--4-4-5-2-|-4--4-4-5-2--||-||--4--4-4-5-2---||-0-0-0-0-2-2-2-2-|
G#|o-4--4-4-3-2-|-4--4-4-3-2-o||-||o-4--4-4-3-2--o||-0-0-0-0-2-2-2-2-|
D#|--2--2-2-3-0-|-2--2-2-3-0--||-||--2--2-2-3-0---||---------0-0-0-0-|

      C5      GbBb5b  Ab5/Eb  Bb5
     5/8             6/8
D#|---------------||-----------------|
A#|o-------------o||-3-3-3-3---------|
F#|----------5----||-2-2-2-2-4-4-4-4-|
C#|--4-4-4-4-5-2--||-0-0-0-0-2-2-2-2-|
G#|o-4-4-4-4-3-2-o||-0-0-0-0-2-2-2-2-|
D#|--2-2-2-2-3-0--||---------0-0-0-0-|


[Verse 1]

    C5                                     N.C.            C5
   5/8                                    2/4             5/8
    PM-------------------------------|     PM--------|     PM-------|
D#|-------------|------------|------------|---------------|-------------|
A#|o------------|------------|------------|---------------|-------------|
F#|-------------|------------|------------|---------------|-------------|
C#|--4--4-4-4---|-4--4-4-4---|-4--4-4-4---|---------------|-4--4-4-4----|
G#|o-4--4-4-4---|-4--4-4-4---|-4--4-4-4---|-5-5-5-4-4-4---|-4--4-4-4----|
D#|--2--2-2-2---|-2--2-2-2---|-2--2-2-2---|-------------5-|-2--2-2-2----|

                            1.                2.
                           2/4
  PM-----|     PM---------------------|       PM--------|
D#|------------|------------|----------------||---------------|
A#|------------|------------|---------------o||---------------|
F#|------------|------------|----------------||---------------|
C#|-4--4-4-4---|-4--4-4-4---|-------------2--||---------------|
G#|-4--4-4-4---|-4--4-4-4---|-5-5-5-4-4-4---o||-5-5-5-4-4-4---|
D#|-2--2-2-2---|-2--2-2-2---|----------------||-------------4-|


    Eb5
   5/8
    PM-----|     PM-----|     PM-----|
D#|-------------|------------|------------|
A#|o------------|------------|------------|
F#|-------------|------------|------------|
C#|--7--7-7-7---|-7--7-7-7---|-7--7-7-7---|
G#|o-7--7-7-7---|-7--7-7-7---|-7--7-7-7---|
D#|--5--5-5-5---|-5--5-5-5---|-5--5-5-5---|


    1.                  2.
   2/4
                        PM|   PM|   PM|
D#|------------------||------------------|
A#|-----------------o||------------------|
F#|------------------||------------------|
C#|------------------||------------------|
G#|-8-7-0-7-0-0-10\-o||-8-7-5------------|
D#|------------------||-------8-7-5-4-3--|

  C5                                     N.C.
 5/8                                    2/4
  PM----------------------------------|   PM---------|
D#|------------|------------|------------|---------------|
A#|------------|------------|------------|---------------|
F#|------------|------------|------------|---------------|
C#|-4--4-4-4---|-4--4-4-4---|-4--4-4-4---|---------------|
G#|-4--4-4-4---|-4--4-4-4---|-4--4-4-4---|-5-5-5-4-4-4---|
D#|-2--2-2-2---|-2--2-2-2---|-2--2-2-2---|-------------0-|

  C5
 5/8
  PM----------------------------------|
D#|------------|------------|--------------|
A#|------------|------------|--------------|
F#|------------|------------|--------------|
C#|-4--4-4-4---|-4--4-4-4---|-4--4-4-4-----|
G#|-4--4-4-4---|-4--4-4-4---|-4--4-4-4-----|
D#|-2--2-2-2---|-2--2-2-2---|-2--2-2-2-----|


                                     [Pre-Chorus]
    N.C.                               Bb5
   4/4
D#|---------------------------------||----------|
A#|---------------------------------||----------|
F#|---------------------------------||-4--------|
C#|---------------------------------||-2--------|
G#|-4-4-4---------------------------||-2--------|
D#|-------5-5-5-4-4-4-2-2-2-4-4-5-5-||-0--------|

D#|------------|----------|----------------|
A#|------------|----------|----------------|
F#|-(4)--------|-4--------|-(4)------------|
C#|-(2)--------|-2--------|-(2)------------|
G#|-(2)--------|-2--------|-(2)----1--2----|
D#|-(0)--------|-0--------|-(0)------------|

    Bb5        (F#)       (G)        N.C.
D#|----------|----------|----------|----------------|
A#|----------|----------|----------|----------------|
F#|-4--------|----------|----------|-/7--5----------|
C#|-2--------|----------|----------|----------5--4--|
G#|-2--------|-3--------|-4--------|--------7-------|
D#|-0--------|----------|----------|----------------|


[Chorus]

      F5                            N.C.(Cm)
              PM|                PM-------------------------------|
D#|--------------|---------------|---------------------------------|
A#|o-------------|---------------|---------------------------------|
F#|--4-----------|---------------|---------------------------------|
C#|--4-----------|---------------|---------------------------------|
G#|o-2-------2-4-|-5--4--2-0-----|-------------------2-------------|
D#|--------------|------------1--|-5-2-2-4-2-2-5-2-2---2-2-5-2-4-2-|

  PM----------------------------|
D#|----------------------------------|
A#|----------------------------------|
F#|----------------------------------|
C#|----------------------------------|
G#|-------------------5-----4--------|
D#|-5-2-2-4-2-2-5-2-2---2-2---2-5----|

    1.
    F5                            N.C.(Cm)
          PM--|                   PM-----------------------------|
D#|-------------|---------------|---------------------------------|
A#|-------------|---------------|---------------------------------|
F#|-4-----------|---------------|---------------------------------|
C#|-4-----------|----2--3-------|---------------------------------|
G#|-2-------2-4-|-5-------5--4--|-------------------2-------------|
D#|-------------|---------------|-5-2-2-4-2-2-5-2-2---2-2-5-2-4-2-|

  PM---------------------------|
D#|--------------------------------||
A#|-------------------------------o||
F#|--------------------------------||
C#|--------------------------------||
G#|-------------------5-----4-----o||
D#|-5-2-2-4-2-2-5-2-2---2-2---2-5--||


    2.
    F5                             N.C.(Cm)
          PM--|                    PM-----------------------------|
D#|-------------|----------------|---------------------------------|
A#|-------------|----------------|---------------------------------|
F#|-4-----------|----------------|---------------------------------|
C#|-4-----------|----2--3-/7--6--|---------------------------------|
G#|-2-------2-4-|-5--------------|-------------------2-------------|
D#|-------------|----------------|-5-2-2-4-2-2-5-2-2---2-2-5-2-4-2-|

  PM-------------------------------|
D#|------------------------------------|
A#|------------------------------------|
F#|------------------------------------|
C#|------------------------------------|
G#|-------------------5-----4---2------|
D#|-5-2-2-4-2-2-5-2-2---2-2---2---2----|

 PM-----------------------------------------------------------------|
D#|---------------------------------|---------------------------------|
A#|---------------------------------|---------------------------------|
F#|---------------------------------|---------------------------------|
C#|---------------------------------|---------------------------------|
G#|-------------------2-------------|-------------------5-----4---2---|
D#|-5-2-2-4-2-2-5-2-2---2-2-5-2-4-2-|-5-2-2-4-2-2-5-2-2---2-2---2---2-|

 PM-----------------------------------------------------------------|
D#|---------------------------------|-----------------------------------|
A#|---------------------------------|-----------------------------------|
F#|---------------------------------|-----------------------------------|
C#|---------------------------------|-----------------------------------|
G#|-3-3-3-3-3-3-3-3-3-3-3-3---------|-2-2-2-2-2-2-2-2-2-2-2-2-----------|
D#|-------------------------4-4-4-4-|-------------------------3-3-3-3---|


[Bridge]

     C5     GbDbBb5 C5     GbDbBb5 C5     GbDbBb5 Ab5/Eb  Bb5
     6/8
D#|---------------|--------------|--------------|------------------||
A#|o--------------|--------------|--------------|-----------------o||
F#|---------5-----|--------5-----|--------5-----|-2-2-2-2----------||
C#|--4--4-4-5-5-2-|-4--4-4-5-5-2-|-4--4-4-5-5-2-|-0-0-0-0-2-2-2-2--||
G#|o-4--4-4-3-5-2-|-4--4-4-3-5-2-|-4--4-4-3-5-2-|-0-0-0-0-2-2-2-2-o||
D#|--2--2-2-3-3-0-|-2--2-2-3-3-0-|-2--2-2-3-3-0-|---------0-0-0-0--||


[Verse 2]

      N.C.(Cm)
   PM-------------------------------------------------|
D#|--------------------------|-------------------------|
A#|o-------------------------|-------------------------|
F#|--------------------------|-------------------------|
C#|--------------------------|-------------------------|
G#|o-------------3-3---------|-------------3-3---------|
D#|--2-2-2-2-2-2-----3-3-0-0-|-2-2-2-2-2-2-----3-3-0-0-|

  PM-----------------------------------------| 
D#|-------------------------|-------------------||
A#|-------------------------|------------------o||
F#|-------------------------|-------------------||
C#|-------------------------|-------------------|| 4x
G#|-------------3-3---------|-0-0-0-0----------o||
D#|-2-2-2-2-2-2-----3-3-0-0-|---------0-0-0-0---||

      N.C.(Ebm)                                       Cb5/Gb  Db5
D#|----------------|---------------|---------------|-------------------||
A#|o---------------|---------------|---------------|------------------o||
F#|----------------|---------------|---------------|-5-5-5-5-----------||
C#|----------1-----|---------1-----|---------1-----|-3-3-3-3-5-5-5-5---||
G#|o-0-0-0-0---1---|-0-0-0-0---1---|-0-0-0-0---1---|-3-3-3-3-5-5-5-5--o||
D#|--------------3-|-------------3-|-------------3-|---------3-3-3-3---||


D#|----------------|---------------|---------------|
A#|o---------------|---------------|---------------|
F#|----------------|---------------|---------------|
C#|----------------|---------------|---------------|
G#|o---------3-----|---------3-----|---------3-----|
D#|--2-2-2-2---3-0-|-2-2-2-2---3-0-|-2-2-2-2---3-0-|

    1.                  2.
    Ab5/Eb  Bb5         N.C.
                       4/4
D#|------------------||-----------------------------------|
A#|-----------------o||-----------------------------------|
F#|-2-2-2-2----------||-----------------------------------|
C#|-0-0-0-0-2-2-2-2--||-----------------------------------|
G#|-0-0-0-0-2-2-2-2-o||-4-4-4-----------------------------|
D#|---------0-0-0-0--||-------5-5-5-4-4-4-2-2-2-4-4-5-5---|


[Interlude 1]

      (Cm)                              (Fm/C)
    PM-----------------------------------------------------------------|
D#|----------------------------------|---------------------------------|
A#|o---------------------------------|---------------------------------|
F#|----------------------------------|---------------------------------|
C#|----------------------------------|---------------------------------|
G#|o---------------------------------|---------------------------------|
D#|--2-2-2-2-2-2-2-2-2-2-2-2-2-2-2-0-|-2-2-2-2-2-2-2-2-2-2-2-2-2-2-2-0-|

  (Cm)                              (Fm/C)
 PM-----------------------------------------------------------------|
D#|---------------------------------|-----------------------------------|
A#|---------------------------------|-----------------------------------|
F#|---------------------------------|-----------------------------------|
C#|---------------------------------|-----------------------------------|
G#|---------------------------------|-----------------------------------|
D#|-2-2-2-2-2-2-2-2-2-2-2-2-2-2-2-0-|-2-2-2-2-2-2-2-2-2-2-2-2-2-2-2-2---|

    (Cm)                              (B°7)
  PM-----------------------------------------------------------------|
D#|---------------------------------|---------------------------------|
A#|---------------------------------|---------------------------------|
F#|---------------------------------|---------------------------------|
C#|-4-4-4-4-4-4-4-4-4-4-4-4-4-4-4-4-|-3-3-3-3-3-3-3-3-----------------|
G#|---------------------------------|-----------------5-5-5-5-4-4-4-4-|
D#|---------------------------------|---------------------------------|

  (Eb)                              (D°7)           (F#°7)  (G)
  PM-----------------------------------------------------------------|
D#|---------------------------------|------------------------------------||
A#|---------------------------------|-----------------------------------o||
F#|---------------------------------|------------------------------------||
C#|---------------------------------|------------------------------------||
G#|-0-0-0-0-0-0-0-0-0-0-0-0-0-0-0-0-|-----------------3-3-3-3-4-4-4-4---o||
D#|---------------------------------|-4-4-4-4-4-4-4-4--------------------||

    (Ab)                              (Cm/G)
  PM-----------------------------------------------------------------|
D#|---------------------------------|---------------------------------|
A#|---------------------------------|---------------------------------|
F#|---------------------------------|---------------------------------|
C#|---------------------------------|---------------------------------|
G#|-5-5-5-5-5-5-5-5-5-5-5-5-5-5-5-5-|-4-4-4-4-4-4-4-4-4-4-4-4-4-4-4-4-|
D#|---------------------------------|---------------------------------|

  Fm                                (F#°7)          (G)
 PM-----------------------------------------------------------------|
D#|---------------------------------|-----------------------------------|
A#|---------------------------------|-----------------------------------|
F#|---------------------------------|-----------------------------------|
C#|---------------------------------|-----------------------------------|
G#|-2-2-2-2-2-2-2-2-2-2-2-2-2-2-2-2-|-3-3-3-3-3-3-3-3-4-4-4-4-4-4-4-4---|
D#|---------------------------------|-----------------------------------|


[Guitar Break]

    N.C.(Cm)
    PM--------------------------------------------------------------|
D#|----------------------------------|----------------------------------||
A#|o---------------------------------|---------------------------------o||
F#|----------------------------------|----------------------------------||
C#|----------------------------------|----------------------------------||
G#|o-------------------2-------------|-------------------5-----4---2---o||
D#|--5-2-2-4-2-2-5-2-2---2-2-5-2-4-2-|-5-2-2-4-2-2-5-2-2---2-2---2---2--||

    PM--------------------------------------------------------------|
D#|----------------------------------|----------------------------------||
A#|o---------------------------------|---------------------------------o||
F#|--------------------4-------------|-------------------7-----6---4----||
C#|--7-4-4-6-4-4-7-4-4---4-4-7-4-6-4-|-7-4-4-6-4-4-7-4-4---4-4---4---4--||
G#|o---------------------------------|---------------------------------o||
D#|----------------------------------|----------------------------------||

      N.C.(Fm)
     6/8
D#|--------------------------|-------------------------|
A#|o-------------------------|-------------------------|
F#|--------------------------|-------------------------|
C#|--------------4---4-5-4---|-------------3---1-------|
G#|o-2-2-2-5-2-2---2-------5-|-2-2-2-5-2-2---2---2-1-0-|
D#|--------------------------|-------------------------|

D#|-------------------------|-----------------------------||
A#|-------------------------|----------------------------o||
F#|-------------------------|-----------------------------||
C#|-------------4---4-5-4---|-----------------------------||
G#|-2-2-2-5-2-2---2-------5-|-------7---------4---5-4----o||
D#|-------------------------|-3-3-3---3-3-2-2---2---------||


[Keyboard Solo]

      N.C.(Bbm)
     3/4
D#|------------------------|-------------------------|
A#|o-----------------------|-------------------------|
F#|------------4---4-5-4---|-------------3---1-------|
C#|--2-2-5-2-2---2-------5-|-2-2-2-5-2-2---2---2-1-0-|
G#|o-----------------------|-------------------------|
D#|------------------------|-------------------------|

D#|-------------------------|--------------------------||
A#|-------------------------|-------------------------o||
F#|-------------4---4-5-4---|--------------------------||
C#|-2-2-2-5-2-2---2-------5-|-------7-----4-5-4---5-4--||
G#|-------------------------|-3-3-3---3-3-------2-----o||
D#|-------------------------|--------------------------||

N.C.(Ebm)
6/8
D#|--------------------------|-------------------------|
A#|o-------------5---5-6-5---|-------------4---2-------|
F#|--2-2-2-5-2-2---2-------5-|-2-2-2-5-2-2---2---2-1-0-|
C#|--------------------------|-------------------------|
G#|o-------------------------|-------------------------|
D#|--------------------------|-------------------------|

D#|-------------------------|----------------------------||
A#|-------------5---5-6-5---|---------------------------o||
F#|-2-2-2-5-2-2---2-------5-|-------7-----4-5-4---5-4----||
C#|-------------------------|-3-3-3---3-3-------2--------||
G#|-------------------------|---------------------------o||
D#|-------------------------|----------------------------||


[Guitar Solo]

 3/4
  Gtr III
   |--------6---------|  |--------6---------|  |--------6---------|
D#|-------------------------------------------------------------------|
A#|-15-15---17-15-15---17-14-15---17-18-17---15-14-15---17-18-17---15-|
F#|-------------------------------------------------------------------|
C#|-------------------------------------------------------------------|
G#|-------------------------------------------------------------------|
D#|-------------------------------------------------------------------|

Gtrs I, II
D#|-------------------------------------------------------------------|
A#|-------------------------------------------------------------------|
F#|-------------------------------------------------------------------|
C#|-----------------------------------7----------7----8-----7---------|
G#|--5----5-----5----8-----5----5----------5---------------------8----|
D#|-------------------------------------------------------------------|

   |--------6---------|  |--------6---------|  |----------6----------|
D#|------------13-15---16-17-16---15-13-15---16-17-16---15---------------|
A#|-15-15---17---------------------------------------------18s17-15---14-|
F#|----------------------------------------------------------------------|
C#|----------------------------------------------------------------------|
G#|----------------------------------------------------------------------|
D#|----------------------------------------------------------------------|

D#|----------------------------------------------------------------------|
A#|----------------------------------------------------------------------|
F#|----------------------------------------------------------------------|
C#|-----------------------------------6----------4-----------------------|
G#|--5----5-----5----8-----5----5----------5----------5-----4-------3----|
D#|----------------------------------------------------------------------|

     |--------6---------|  |--------6---------|  |--------6---------|
D#|----------------------------------15--------------------15---------|
A#|-15-15---17-15-15---17-15-17---18----18---17-15-17---18----18---17-|
F#|-------------------------------------------------------------------|
C#|-------------------------------------------------------------------|
G#|-------------------------------------------------------------------|
D#|-------------------------------------------------------------------|

D#|-------------------------------------------------------------------|
A#|-------------------------------------------------------------------|
F#|-------------------------------------------------------------------|
C#|-----------------------------------7----------7----8-----7---------|
G#|--5----5-----5----8-----5----5----------5---------------------8----|
D#|-------------------------------------------------------------------|


   |---------6---------|  |--------6---------|  |--------6---------|
D#|------------15-16----17-18-17---16-15-16---17-18-18---17-15-----------|
A#|-15-17---18-------------------------------------------------18---17---|
F#|----------------------------------------------------------------------|
C#|----------------------------------------------------------------------|
G#|----------------------------------------------------------------------|
D#|----------------------------------------------------------------------|

D#|----------------------------------------------------------------------|
A#|----------------------------------------------------------------------|
F#|----------------------------------------------------------------------|
C#|----------------------------------------------------------------------|
G#|------------------10----------------7----8-----7----------8----7------|
D#|--6----6-----6-----------6----6---------------------5-----------------|

D#|-------------------------------------|-------------------------------------|
A#|-15----------------------------------|-------------------------------------|
F#|----14-------------------------------|-14----15-14-13-14-13----------------|
C#|-------17-15-15----15-14-15----14-15-|----15----------------16-15-14-------|
G#|----------------17----------15-------|-------------------------------17----|
D#|-------------------------------------|----------------------------------17-|

D#|-------------------------------------|-------------------------------------|
A#|-------------------------------------|-------------------------------------|
F#|-------------------------------------|-------------------------------------|
C#|--------------------7-----7--8--7----|--------------------6-----4----------|
G#|--5--5--5--8--5--5-----5-----------8-|--5--5--5--8--5--5-----5-----5--4--3-|
D#|-------------------------------------|-------------------------------------|

        |--------6---------|     |--3--|          |--3--|
D#|------------------17------------------17h22p17-------------|
A#|---------------18----18------------18----------18----------|
F#|----------19--------------19----19----------------19-------|
C#|-------19--------------------19----------------------19----|
G#|-17-20--------------------------------------------------20-|
D#|-----------------------------------------------------------|

D#|-----------------------------------------------------------|
A#|-----------------------------------------------------------|
F#|-----------------------------------------------------------|
C#|------------------------------7-----------7--8--7----------|
G#|--5--5--5----8-----5----5--------5-----------------------8-|
D#|-----------------------------------------------------------|

   |-------------10:8--------------|  |---3---|  |---3---|  |---3---|  |---3---|
D#|----------------------------------------------------------------------------------|
A#|---------------------------------------------------------------------18-17---15---|
F#|----------------------------------------------------------16-15---14--------------|
C#|------------------------------------15-14---12-17-15---14-------------------------|
G#|-14p12p11------11h12h14p12p===11--------------------------------------------------|
D#|------------14-------------------14-----------------------------------------------|

D#|----------------------------------------------------------------------------------|
A#|----------------------------------------------------------------------------------|
F#|----------------------------------------------------------------------------------|
C#|----------------------------------------------------------------------------------|
G#|---------------------------10-------------------7----8-----7----------8----7------|
D#|--6-------6--------6-----------------6----6---------------------5-----------------|

    N.C.(C#m)
   6/8
D#|-15-15-15-(18)p(15)h18p15----15-------18b20-----|
A#|--------------------------18----18-15-----------|
F#|------------------------------------------------|
C#|------------------------------------------------|
G#|------------------------------------------------|
D#|------------------------------------------------|

D#|------------------------------------------------|
A#|------------------------------------------------|
F#|------------------------------7-----7--8----7---|
C#|--5--5--5------------8--5--5-----5------------8-|
G#|------------------------------------------------|
D#|------------------------------------------------|

D#|-18---(18)b20==(18)r-15--------------------------15-------|
A#|------------------------18-15-18b20r(18)b20r(18)----18-15-|
F#|----------------------------------------------------------|
C#|----------------------------------------------------------|
G#|----------------------------------------------------------|
D#|----------------------------------------------------------|

D#|----------------------------------------------------------|
A#|----------------------------------------------------------|
F#|-------------------------------6--------------4-----------|
C#|--5-5------------5----8--5--5---------5-----------5--4--3-|
G#|----------------------------------------------------------|
D#|----------------------------------------------------------|

D#|-------------------------------------|--------------------------------|
A#|----15-------------------------------|--------------------------------|
F#|-17----14-17----15-------------------|--------------------------------|
C#|-------------17----17-15-------15----|------------------12\-----------|
G#|-------------------------17-15----17-|-15-----------------------------|
D#|-------------------------------------|------18-15-13-11---------------|

D#|-------------------------------------|--------------------------------|
A#|-------------------------------------|--------------------------------|
F#|--------------------7-----7--8--7----|--------------------------------|
C#|--5--5--5--8--5--5-----5-----------8-|---------10--------7--8-7---8-7-|
G#|-------------------------------------|--6-6--6-----6--6---------5-----|
D#|-------------------------------------|--------------------------------|

D#|----------------------------------------|
A#|----------------------------------------|
F#|-------------------------------15-16-17-|
C#|-------------12-15-15s17-15h17----------|
G#|----13-14-15----------------------------|
D#|-15-------------------------------------|

D#|----------------------------------------|
A#|----------------------------------------|
F#|--------------------7-----7-----8--7----|
C#|--5--5--5--8--5--5-----5--------------8-|
G#|----------------------------------------|
D#|----------------------------------------|

D#|--------------------------/15-18-19-20-|
A#|-----------------18-19-20--------------|
F#|-----15-16-17S19-----------------------|
C#|-/17-----------------------------------|
G#|---------------------------------------|
D#|---------------------------------------|

D#|---------------------------------------|
A#|---------------------------------------|
F#|---------------------6------4----------|
C#|---5--5--5--8--5--5-----5------5--4--3-|
G#|---------------------------------------|
D#|---------------------------------------|

D#|-20b22======20r-----20b22======20r-----|-20----18----------------------------||
A#|---------------------------------------|----20----20----20-------------------||
F#|---------------------------------------|-------------18----18-17-------------||
C#|---------------------------------------|-------------------------20-17-19-20-||
G#|---------------------------------------|-------------------------------------||
D#|---------------------------------------|-------------------------------------||

D#|---------------------------------------|-------------------------------------||
A#|---------------------------------------|-------------------------------------||
F#|---------------------7-------7--8--7---|-------------------------------------||
C#|--5-----5-5--8--5-5--------5---------8-|----------10--------7--8--7-----8--7-||
G#|---------------------------------------|--6--6--6-----6--6-----------5-------||
D#|---------------------------------------|-------------------------------------||


[Guitar/Key Harmony]

  Bb5                 Gb/Bb                Bbm6                 N.C.
 4/4
  Gtr IV
                             ~~                                          ~~~~~
D#|-7-----------------|--8-----------------|--7-----------------|-10--8----------|
A#|----8--7-----7-8---|-----8--7-----7-8---|-----8--7-----7-8---|----------8--7--|
F#|----------9--------|-----------9--------|-----------9--------|--------9-------|
C#|-------------------|--------------------|--------------------|----------------|
G#|-------------------|--------------------|--------------------|----------------|
D#|-------------------|--------------------|--------------------|----------------|

Gtrs I, II
D#|-------------------|--------------------|--------------------|----------------|
A#|-------------------|--------------------|--------------------|----------------|
F#|-------------------|--------------------|--------------------|----------------|
C#|-9-----------------|-10-----------------|-11-----------------|--7-------8--9--|
G#|-7-----------------|--7-----------------|--7-----------------|----------------|
D#|-------------------|--------------------|--------------------|----------------|

    Bb5                 Gb/Bb
D#|-7-----------------|--8-----------------|
A#|----8--7-----7-8---|-----8--7-----7-8---|
F#|----------9--------|-----------9--------|
C#|-------------------|--------------------|
G#|-------------------|--------------------|
D#|-------------------|--------------------|
|
D#|-------------------|--------------------|
A#|-------------------|--------------------|
F#|-------------------|--------------------|
C#|-9-----------------|-10-----------------|
G#|-7-----------------|--7-----------------|
D#|-------------------|--------------------|

    Bbm6                 N.C.
                                         ~~
D#|--9-----------------|-10---8--12-15--14---||
A#|-----8--7-----7-8---|---------------------||
F#|-----------9--------|---------------------||
C#|--------------------|---------------------||
G#|--------------------|---------------------||
D#|--------------------|---------------------||
|
D#|--------------------|---------------------||
A#|--------------------|---------------------||
F#|--------------------|--7------------------||
C#|-11-----------------|-----10--------------||
G#|--7-----------------|----------7-10---9---||
D#|--------------------|---------------------||

      F5
D#|--14----------------------------------------------|
A#|o----15----15-------------------------------------|
F#|--------16----16----18-16----------16-18-16-19-16-|
C#|-----------------16-------16----16----------------|
G#|o----------------------------17-------------------|
D#|--------------------------------------------------|

D#|--------------------------------------------------|
A#|o-------------------------------------------------|
F#|--------------------------------------------------|
C#|---4----------------------------------------------|
G#|o--2----------------------------------------------|
D#|--------------------------------------------------|


    Db/F
D#|-15----------------------------------------------|
A#|----15----15-------------------------------------|
F#|-------16----16----18-16----------16-18-16-19-16-|
C#|----------------17-------17----17----------------|
G#|----------------------------17-------------------|
D#|-------------------------------------------------|

D#|-------------------------------------------------|
A#|-------------------------------------------------|
F#|-------------------------------------------------|
C#|--5----------------------------------------------|
G#|--2----------------------------------------------|
D#|-------------------------------------------------|

    Fm6
D#|-16----------------------------------------------|
A#|----15----15-------------------------------------|
F#|-------16----16----18-16----------16-18-16-19-16-|
C#|----------------18-------18----18----------------|
G#|----------------------------17-------------------|
D#|-------------------------------------------------|

D#|-------------------------------------------------|
A#|-------------------------------------------------|
F#|-------------------------------------------------|
C#|--6----------------------------------------------|
G#|--2----------------------------------------------|
D#|-------------------------------------------------|

  1.                                                  2.
N.C.                                                
   PM------------------------------------------|
D#|--------------------------------------------------||----------------||
A#|-------------------------------------------------o||----------------||
F#|-14-14-14-----------------------------------------||----------------||
C#|----------17-17-17--------------------------------||----------------||
G#|-------------------14-14-17-17-17-17-16-16-16-16-o||----------------||
D#|--------------------------------------------------||----------------||
|
|  PM------------------------------------------|
D#|--------------------------------------------------||----------------||
A#|-------------------------------------------------o||----------------||
F#|--2--2--2-----------------------------------------||-9--7-----------||
C#|-----------5--5--5--------------------------------||-7--5--4-7--7---||
G#|--------------------2--2--5--5--5--5--4--4--4--4-o||-------2-5--4---||
D#|--------------------------------------------------||----------------||


[Interlude 2]

      (Cm)                              (Fm/C)
Gtrs I, II
   PM-----------------------------------------------------------------|
D#|----------------------------------|---------------------------------|
A#|o---------------------------------|---------------------------------|
F#|----------------------------------|---------------------------------|
C#|----------------------------------|---------------------------------|
G#|o---------------------------------|---------------------------------|
D#|--2-2-2-2-2-2-2-2-2-2-2-2-2-2-2-0-|-2-2-2-2-2-2-2-2-2-2-2-2-2-2-2-0-|

  (Cm)                              (Fm/C)
 PM-----------------------------------------------------------------|
D#|---------------------------------|-----------------------------------|
A#|---------------------------------|-----------------------------------|
F#|---------------------------------|-----------------------------------|
C#|---------------------------------|-----------------------------------|
G#|---------------------------------|-----------------------------------|
D#|-2-2-2-2-2-2-2-2-2-2-2-2-2-2-2-0-|-2-2-2-2-2-2-2-2-2-2-2-2-2-2-2-2---|

    (Cm)                              (B°7)
    PM---------------------------------------------------------------|
D#|---------------------------------|---------------------------------|
A#|---------------------------------|---------------------------------|
F#|---------------------------------|---------------------------------|
C#|-4-4-4-4-4-4-4-4-4-4-4-4-4-4-4-4-|-3-3-3-3-3-3-3-3-----------------|
G#|---------------------------------|-----------------5-5-5-5-4-4-4-4-|
D#|---------------------------------|---------------------------------|

   (Eb)                              (D°7)           (F#°7)  (G)
  -----------------------------------------------------------------|
D#|---------------------------------|------------------------------------||
A#|---------------------------------|-----------------------------------o||
F#|---------------------------------|------------------------------------||
C#|---------------------------------|------------------------------------||
G#|-0-0-0-0-0-0-0-0-0-0-0-0-0-0-0-0-|-----------------3-3-3-3-4-4-4-4---o||
D#|---------------------------------|-4-4-4-4-4-4-4-4--------------------||

    (Ab)                              (Cm/G)
    PM-----------------------------------------------------------------
D#|---------------------------------|---------------------------------|
A#|---------------------------------|---------------------------------|
F#|---------------------------------|---------------------------------|
C#|---------------------------------|---------------------------------|
G#|-5-5-5-5-5-5-5-5-5-5-5-5-5-5-5-5-|-4-4-4-4-4-4-4-4-4-4-4-4-4-4-4-4-|
D#|---------------------------------|---------------------------------|

   Fm                                (F#°7)          (G)
  PM-----------------------------------------------------------------|
D#|---------------------------------|-----------------------------------|
A#|---------------------------------|-----------------------------------|
F#|---------------------------------|-----------------------------------|
C#|---------------------------------|-----------------------------------|
G#|-2-2-2-2-2-2-2-2-2-2-2-2-2-2-2-2-|-3-3-3-3-3-3-3-3-4-4-4-4-4-4-4-4---|
D#|---------------------------------|-----------------------------------|


[Outro]

      N.C.(Cm)
      PM--------------------------------------------------------------|
D#|----------------------------------|---------------------------------|
A#|o---------------------------------|---------------------------------|
F#|----------------------------------|---------------------------------|
C#|----------------------------------|---------------------------------|
G#|o-------------------2-------------|-------------------5-----4---2---|
D#|--5-2-2-4-2-2-5-2-2---2-2-5-2-4-2-|-5-2-2-4-2-2-5-2-2---2-2---2---2-|

  PM-----------------------------------------------------------------|
D#|---------------------------------|-----------------------------------|
A#|---------------------------------|-----------------------------------|
F#|---------------------------------|-----------------------------------|
C#|---------------------------------|-----------------------------------|
G#|-------------------2-------------|-------------------5-----4---2-----|
D#|-5-2-2-4-2-2-5-2-2---2-2-5-2-4-2-|-5-2-2-4-2-2-5-2-2---2-2---2---2---|


    PM-------------------------------
D#|---------------------------------|
A#|---------------------------------|
F#|---------------------------------|
C#|---------------------------------|
G#|-3-3-3-3-3-3-3-3-3-3-3-3---------|
D#|-------------------------4-4-4-4-|

   1.                                  2.
                                      N.C.            C5
  PM-------------------------------|
D#|----------------------------------||---------------|----------------*|
A#|---------------------------------o||---------------|----------------*|
F#|----------------------------------||---------------|----------------*|
C#|----------------------------------||-2-------------|-4--(4)/--------*|
G#|-2-2-2-2-2-2-2-2-2-2-2-2---------o||----5----------|-4--(4)/--------*|
D#|-------------------------3-3-3-3--||-------2-5--4--|-2--(2)/--------*|


************************************

| (n)  Ghost note
| h    Hammer-on
| p    Pull-off
| r    Release
| b    Bend
| /    Slide up
| \    Slide down
| s    Slap
| ||o  Repeat start
| o||  repeat end
| 1.   Alternative ending 1
| 2.   Alternative ending 2
| PM   Palm muting

************************************
Suggest correction
comments
print report bad tab
15 comments total. Showing first comments.
+1 reply
Schmorgasblab 72 wrote on December 4 2005, 02:50 pm

Tiz a great tab!

+1 reply
arsonite 171 wrote on May 14 2006, 06:15 pm

Very good job. 100% accurate!

+1 reply
SchecterFreak 51 wrote on July 11 2006, 12:26 pm

this tab is sweet. it is right on the money. thank you andrew zara you're a tab god

guest
You may want to rate the tab now too:
select rating
Please do not post tabs as comments. Select "correction" instead!