Oops, an error
Loading. Please wait.

Panic Attack bass

version 3
version 3

Whole song

  • Based on the bass master track: https://www.youtube.com/watch?v=g4P3tWLiHnQ.
  • This tab includes lyrics underneath the tabs to as... Show more

Interactive

70 views 6 this week
no commentswrite comment
1 2 3 4 5
3 more votes to show rating
add to favorites
×
Save as Personal and add changes to this tab that will be seen only by you. Learn more ›
×
You can save this tab as Personal to edit and correct it or add notes. All changes will be seen only by you. Learn more »
launch autoscroll
font size
0
reset
guitar tuner
backing track
0:00
0:00
edit
Autoscroll
slow
fast
+/-
esc
set tempo
stop
About this tab version
This tab includes lyrics underneath the tabs to assosiate where and when the notes are played. Also this indicates all of the time signature changes throughout the song. Was this info helpful? Yes No
[Intro]
(4/4)
F|-10--------9-------10-------12-------10-----9----|-10--------9-------10------/15-------14----12----|
C|-----0--0-----0--0-----0--0-----0--0-----0-----0-|-----0--0-----0--0-----0--0-----0--0-----0-----0-|
G|-------------------------------------------------|-------------------------------------------------|
D|-------------------------------------------------|-------------------------------------------------|
A|-------------------------------------------------|-------------------------------------------------| (x2)

F|-------------------------------------------------|-------------------------------------------------|
C|--3--0--0--2--0--0--3--0--0--5--0--0--3--0--2--0-|--3--0--0--2--0--0--3--0--0--8--0--0--7--0--5--0-|
G|-------------------------------------------------|-------------------------------------------------|
D|-------------------------------------------------|-------------------------------------------------|
A|-------------------------------------------------|-------------------------------------------------| (x2)

F|-------------------------------------------------|-------------------------------------------------|
C|--6--6--6--6--6--6--6--6--6--6--6--6-------------|--5--5--5--5--5--5--5--5--5--5--5--5-------------|
G|--------------------------------------7--7--7--7-|--------------------------------------6--6--6--6-|
D|-------------------------------------------------|-------------------------------------------------|
A|-------------------------------------------------|-------------------------------------------------|

F|-------------------------------------------------|-------------------------------------------------|
C|--3--0--0--2--0--0--3--0--0--5--0--0--3--0--2--0-|--3--0--0--2--0--0--3--0--0--8--0--0--7--0--5--0-|
G|-------------------------------------------------|-------------------------------------------------|
D|-------------------------------------------------|-------------------------------------------------|
A|-------------------------------------------------|-------------------------------------------------| (x2)

F|-------------------------------------------------|-------------------------------------------------|
C|--6--6--6--6--6--6--6--6--6--6--6--6-------------|--5--5--5--5--5--5--5--5--5--5--5--5-------------|
G|--------------------------------------7--7--7--7-|--------------------------------------6_________-|
D|-------------------------------------------------|-------------------------------------------------|
A|-------------------------------------------------|-------------------------------------------------|

F|-------------------------------------------------|
C|-------------------------------------------------|
G|-5_____(5)\--------------------------------------|
D|-------------------------------------------------|
A|-------------------------------------------------|

[1st Pre-Verse]
(5/8)                                                             (6/8)
F|---------------------|---------------------|---------------------|-------------------------|
C|-------------6-------|-------------6-------|-------------6-------|-3-3---3---3-------------|
G|-5-5---5---5-----3---|-5-5---5---5-----3---|-5-5---5---5-----3---|-------------3-3---3---3-|
G|---------------------|---------------------|---------------------|-------------------------|
A|---------------------|---------------------|---------------------|-------------------------|
      
(5/8)
F|---------------------|---------------------|---------------------|---------------------|
C|---------------------|---------------------|---------------------|---------------------|
G|---------------------|---------------------|---------------------|---------------------|
D|-------------4-------|-------------4-------|-------------4-------|-------------4-------|
A|-3-3---3---3-----1---|-3-3---3---3-----1---|-3-3---3---3-----1---|-3-3---3---3-----1---|

                                                                  (6/8)
F|---------------------|---------------------|---------------------|-------------------------|
C|---------------------|---------------------|---------------------|-------------------------|
G|---------------------|---------------------|---------------------|-------------------------|
D|-------------4-------|-------------4-------|-------------4-------|-1-1---1---1-------------|
A|-3-3---3---3-----1---|-3-3---3---3-----1---|-3-3---3---3-----1---|-------------1-1---1---1-|

[Verse 1]
(5/8)                                                (4/8)
F|-----------------|-----------------|----------------|-------------------------|
C|-----------------|-----------------|----------------|-------------------------|
G|-----------------|-----------------|----------------|-------------------------|
D|-----------------|-----------------|----------------|-6--6--6--5--5--5--------|
A|-3-----3---1-3---|-3-----3---1-3---|-3-----3--1-3---|-------------------1-----|
  all  wound  up    on    the  edge   ter - ri - fied 

(5/8)                                                (4/8)
F|-----------------|-----------------|----------------|-------------------------|
C|-----------------|-----------------|----------------|-------------------------|
G|-----------------|-----------------|----------------|-------------------3-----|
D|-----------------|-----------------|----------------|-6--6--6--5--5--5--------|
A|-3-----3---1-3---|-3-----3---1-3---|-3-----3--1-3---|-------------------------|
 sleep  dis -turbed rest -less  mind  pet - ri - fied 

(5/8)                                                (4/8)
F|-----------------|-----------------|----------------|-------------------------|
C|-----------------|-----------------|----------------|-------------------------|
G|-----------------|-----------------|----------------|-------------------------|
D|-----------------|-----------------|----------------|-6--6--6--5--5--5--------|
A|-3-----3---1-3---|-3-----3---1-3---|-3-----3--1-3---|-------------------1-----|
clouds  of   fear   per - me  - ate   all    I   see

(5/8)                                                (4/8)
F|-----------------|-----------------|----------------|-------------------------|
C|-----------------|-----------------|----------------|-------------------------|
G|-----------------|-----------------|----------------|-------------------3-----|
D|-----------------|-----------------|----------------|-6--6--6--5--5--5--------|
A|-3-----3---1-3---|-3-----3---1-3---|-3-----3--1-3---|-------------------------|
 high - ten - ing   ner - vous -ness  threa-tens me

(5/8)                                                (4/8)
F|-----------------|-----------------|----------------|-------------------------|
C|-----------------|-----------------|----------------|-------------------------|
G|-----------------|-----------------|----------------|-------------------6-----|
D|-----------------|-----------------|----------------|-8--8--8--7--7--7--------|
A|-6-----6-----6---|-6-----6-----6---|-6-----6----6---|-------------------------|
   I       am       pa   -   ra   -  lysed

(5/8)                                                (4/8)
F|-----------------|-----------------|----------------|-------------------------|
C|-----------------|-----------------|----------------|-------------------------|
G|-----------------|-----------------|----------------|-4--3--------------------|
D|-----------------|-----------------|----------------|-------6--4--3-----------|
A|-6-----6-----6---|-6-----6-----6---|-6-----6----6---|----------------6--5--4--|
  So        a   -   fraid    to       die

(5/8)                                                (4/8)
F|-----------------|-----------------|----------------|-------------------------|
C|-----------------|-----------------|----------------|-------------------------|
G|-----------------|-----------------|----------------|-------------------------|
D|-----------------|-----------------|----------------|-6--6--6--5--5--5--------|
A|-3-----3---1-3---|-3-----3---1-3---|-3-----3--1-3---|-------------------1-----|
  Cut   of   cord   war - ning signs  ne  - ver  show

(5/8)                                                (4/4)
F|-----------------|-----------------|----------------|-------------------------------------------------|
C|-----------------|-----------------|----------------|-------------------------------------------------|
G|-----------------|-----------------|----------------|-------------------------------------------------|
D|-----------------|-----------------|----------------|-5--5--5-----------------------------------------|
A|-3-----3---1-3---|-3-----3---1-3---|-3-----3--1-3---|----------6--6--6--5--5--5--3--3--3--5--5--6--6--|
  Ten- sion strikes cho - king   me   wor - ries grow

[Interlude]
(4/4)
F|-----------------------|-----------------------|-----------------------|-----------------------|
C|-----------------------|-----------------------|-----------------------|-/10______\------------|
G|-----------------------|-----------------------|-----------------------|-----------------------|
D|-----------------------|-----------------------|-----------------------|-----------------------|
A|-1---------------------|-----------------------|-1---------------------|-------------1-----2---|

F|-----------------------|-----------------------|-----------------------|/15--13----------------|
C|-----------------------|-/6--------------------|-/7--------------------|-------------13----12\-|
G|-----------------------|-----------------------|-----------------------|---------15------------|
D|-----------------------|-----------------------|-----------------------|-----------------------|
A|-1---------------------|-----------------------|-----------------------|-----------------------|
                                                                        
(4/4)
F|-----------------------|-----------------------|
C|-----------------------|-----------------------|
G|-----------------------|-----------------------|
D|-3-----------------3--5|-6---5---3-------------|
A|-----------------------|-------------6-----2---|
              Why  do  i  feel_______________so...

F|-------------------------------------------------|-------------------------------------------------|
C|--3--0--0--2--0--0--3--0--0--5--0--0--3--0--2--0-|--3--0--0--2--0--0--3--0--0--8--0--0--7--0-------|
G|-------------------------------------------------|-------------------------------------------------|
D|-------------------------------------------------|--------------------------------------------1----|
A|-------------------------------------------------|-------------------------------------------------|
...numb?

F|-----------------------|-----------------------|
C|-----------------------|-----------------------|
G|-----------------------|-----3---4-------------|
D|-3-----------------3--5|-6-----------6-----5---|
A|-----------------------|-----------------------|
       is it soemthing to do with where I   come...

F|-------------------------------------------------|-------------------------------------------------|
C|--3--0--0--2--0--0--3--0--0--5--0--0--3--0--2--0-|--3--0--0--2--0--0--3--0--0--8--0--0--7--0-------|
G|-------------------------------------------------|-------------------------------------------------|
D|-------------------------------------------------|--------------------------------------------1----|
A|-------------------------------------------------|-------------------------------------------------|
...from?

F|-----------------------|-----------------------|
C|-----------------------|-----------------------|
G|-----------------------|-----------------------|
D|-3-----------------3--5|-6---5---3-------------|
A|-----------------------|-------------6-----2---|
           should this be fight______________or...

F|-------------------------------------------------|-------------------------------------------------|
C|--3--0--0--2--0--0--3--0--0--5--0--0--3--0--2--0-|--3--0--0--2--0--0--3--0--0--8--0--0--7--0-------|
G|-------------------------------------------------|-------------------------------------------------|
D|-------------------------------------------------|--------------------------------------------1----|
A|-------------------------------------------------|-------------------------------------------------|
...flight?

F|-----------------------|-----------------------|
C|-----------------------|-----------------------|
G|-----------------------|-----3---4--/8-----7---|
D|-3-----------------3--5|-6---------------------|
A|-----------------------|-----------------------|
     I dont't know why I'm constantly so    up-...

F|-------------------------------------------------|-------------------------------------------------|
C|--3--0--0--2--0--0--3--0--0--5--0--0--3--0--2--0-|--3--0--0--2--0--0--3--0--0--8--0--0--7--0--5--0-|
G|-------------------------------------------------|-------------------------------------------------|
D|-------------------------------------------------|-------------------------------------------------|
A|-------------------------------------------------|-------------------------------------------------|
...-tight

F|-------------------------------------------------|-------------------------------------------------|
C|--3--0--0--2--0--0--3--0--0--5--0--0--3--0--2--0-|--3--0--0--2--0--0--3--0--0--8--0--0--7--0--5--0-|
G|-------------------------------------------------|-------------------------------------------------|
D|-------------------------------------------------|-------------------------------------------------|
A|-------------------------------------------------|-------------------------------------------------|

F|-------------------------------------------------|-------------------------------------------------|
C|-------------------------------------------------|-------------------------------------------------|
G|-------------------------------------------------|-------------------------------------------------|
D|--4--4--4--4--4--4--4--4--4--4--4--4-------------|--3--3--3--3--3--3--3--3--3--3--3--3-------------|
A|--------------------------------------5--5--5--5-|--------------------------------------4_________-|

[Second Pre-Verse]
(6/8)
F|-------------------------|-------------------------|-------------------------|-------------------------|
C|-------------------------|-------------------------|-------------------------|-------------------------|
G|-------------------------|-------------------------|-------------------------|-------------------------|
D|-------------4-----------|-------------4-----------|-------------4-----------|-1-1---1---1-------------|
A|-3-3---3---3-----4---1---|-3-3---3---3-----4---1---|-3-3---3---3-----4---1---|-------------1-1---1---1-|(x2)

[Verse 2]
(6/8)
F|-------------------------|-------------------------|-------------------------|-------------------------|
C|-------------------------|-------------------------|-------------------------|-------------------------|
G|-------------------------|-------------------------|-------------------------|-------------------------|
D|-------------4-4---------|-------------4-4---------|-------------4-4---------|-1-1-1-1-1-1-------------|
A|-3-3-3-3-3-3-----4-4-1-1-|-3-3-3-3-3-3-----4-4-1-1-|-3-3-3-3-3-3-----4-4-1-1-|-------------1-1-1-1-1-1-|
   ra -  pid   heart- beat   pound- ing  through my chest

F|-------------------------|-------------------------|-------------------------|-------------------------|
C|-------------------------|-------------------------|-------------------------|-------------------------|
G|-------------------------|-------------------------|-------------------------|-------------------------|
D|-------------4-4---------|-------------4-4---------|-------------4-4---------|-1-1-1-1-1-1-------------|
A|-3-3-3-3-3-3-----4-4-1-1-|-3-3-3-3-3-3-----4-4-1-1-|-3-3-3-3-3-3-----4-4-1-1-|-------------1-1-1-1-1-1-|
  ag  -  i -  tated  bo  -   dy    in    de     -   stress
             
F|-------------------------|-------------------------|-------------------------|-------------------------|
C|-------------------------|-------------------------|-------------------------|-------------------------|
G|-------------------------|-------------------------|-------------------------|-------------------------|
D|-------------4-4---------|-------------4-4---------|-------------4-4---------|-1-1-1-1-1-1-------------|
A|-3-3-3-3-3-3-----4-4-1-1-|-3-3-3-3-3-3-----4-4-1-1-|-3-3-3-3-3-3-----4-4-1-1-|-------------1-1-1-1-1-1-| 
   I______________________  feel   like      I'm   in   danger

F|-------------------------|-------------------------|-------------------------|-------------------------|
C|-------------------------|-------------------------|-------------------------|-------------------------|
G|-------------------------|-------------------------|-------------------------|-------------------------|
D|-------------4-4---------|-------------4-4---------|-------------4-4---------|-1-1-1-1-1-1-------------|
A|-3-3-3-3-3-3-----4-4-1-1-|-3-3-3-3-3-3-----4-4-1-1-|-3-3-3-3-3-3-----4-4-1-1-|-------------1-1-1-1-1-1-|
   Da  - ily   life  is    stran - gled  by    my   stress

F|-------------------------|-------------------------|-------------------------|-------------------------|
C|-------------------------|-------------------------|-------------------------|-------------------------|
G|-------------------------|-------------------------|-------------------------|-------------------------|
D|-------------7-----------|-------------7-----------|-------------7-----------|-4-4---4---4-------------|
A|-6-6---6---6-----7---4---|-6-6---6---6-----7---4---|-6-6---6---6-----7---4---|-------------4-4---4---4-|
   A  stifling  surge  shooting througt all_________  my  veins 

F|-------------------------|-------------------------|-------------------------|-------------------------|
C|-------------------------|-------------------------|-------------------------|-------------------------|
G|-------------------------|-------------------------|-------------------------|-------------------------|
D|-------------7-----------|-------------7-----------|-------------7-----------|-4-4---4---4-------------|
A|-6-6---6---6-----7---4---|-6-6---6---6-----7---4---|-6-6---6---6-----7---4---|-------------4-4---4---4-|
  Extreme apprehen - sion   suddenly     i'm        in    -    sane

F|-------------------------|-------------------------|-------------------------|-------------------------|
C|-------------------------|-------------------------|-------------------------|-------------------------|
G|-------------------------|-------------------------|-------------------------|-------------------------|
D|-------------4-----------|-------------4-----------|-------------4-----------|-1-1---1---1-------------|
A|-3-3---3---3-----4---1---|-3-3---3---3-----4---1---|-3-3---3---3-----4---1---|-------------1-1---1---1-|
   No______________________ strong    hope       for   redemption

F|-------------------------|-------------------------|-------------------------|
C|-------------------------|-------------------------|-------------------------|
G|-------------------------|-------------------------|-------------------------|
D|-------------4-----------|-------------4-----------|-------------4-----------|
A|-3-3---3---3-----4---1---|-3-3---3---3-----4---1---|-3-3---3---3-----4---1---|
   A   grave  situa -  tion  des  -  per  - ate  at   best

(8/8)
F|-------------------------------------------------|
C|-------------------------------------------------|
G|-------------------------------------------------|
D|-5--5--5-----------------------------------------|
A|----------6--6--6--5--5--5--3--3--3--5--5--6--6--|

[Interlude]
(4/4)
F|-----------------------|-----------------------|-----------------------|/15--13----------------|
C|-----------------------|-/6--------------------|-/7--------------------|-------------13----12\-|
G|-----------------------|-----------------------|-----------------------|---------15------------|
D|-----------------------|-----------------------|-----------------------|-----------------------|
A|-1---------------------|-----------------------|-----------------------|-----------------------|
             
                                                             
F|-----------------------|-----------------------|
C|-----------------------|-----------------------|
G|-----------------------|-----------------------|
D|-3-----------------3--5|-6---5---3-------------|
A|-----------------------|-------------6-----2---|
              Why  do  i  feel_______________so...

F|-------------------------------------------------|-------------------------------------------------|
C|--3--0--0--2--0--0--3--0--0--5--0--0--3--0--2--0-|--3--0--0--2--0--0--3--0--0--8--0--0--7--0--5--0-|
G|-------------------------------------------------|-------------------------------------------------|
D|-------------------------------------------------|-------------------------------------------------|
A|-------------------------------------------------|-------------------------------------------------|
...numb?

F|-----------------------|-----------------------|
C|-----------------------|-----------------------|
G|-----------------------|-----3---4-------------|
D|-3-----------------3--5|-6-----------6-----5---|
A|-----------------------|-----------------------|
       is it soemthing to do with where I   come...

F|-------------------------------------------------|-------------------------------------------------|
C|--3--0--0--2--0--0--3--0--0--5--0--0--3--0--2--0-|--3--0--0--2--0--0--3--0--0--8--0--0--7--0--5--0-|
G|-------------------------------------------------|-------------------------------------------------|
D|-------------------------------------------------|-------------------------------------------------|
A|-------------------------------------------------|-------------------------------------------------|
...from?

F|-----------------------|-----------------------|
C|-----------------------|-----------------------|
G|-----------------------|-----------------------|
D|-3-----------------3--5|-6---5---3-------------|
A|-----------------------|-------------6-----2---|
           should this be fight______________or...

F|-------------------------------------------------|-------------------------------------------------|
C|--3--0--0--2--0--0--3--0--0--5--0--0--3--0--2--0-|--3--0--0--2--0--0--3--0--0--8--0--0--7--0--5--0-|
G|-------------------------------------------------|-------------------------------------------------|
D|-------------------------------------------------|-------------------------------------------------|
A|-------------------------------------------------|-------------------------------------------------|
...flight?

F|-----------------------|-----------------------|
C|-----------------------|-----------------------|
G|-----------------------|-----3---4--/8-----7---|
D|-3-----------------3--5|-6---------------------|
A|-----------------------|-----------------------|
     I dont't know why I'm constantly feel - ing...

F|---------------------------------|---------------------------------|
C|---------------------------------|---------------------------------|
G|---------------------------------|---------------------------------|
D|---------------------------------|---------------------------------|
A|-3-3-3-3-3-3-3-3-3-3-3-3-3-3-3-1-|-3-3-3-3-3-3-3-3-3-3-3-3-3-3-3-1-|
   Help______________________________less_____________________________

F|---------------------------------|---------------------------------|
C|---------------------------------|---------------------------------|
G|---------------------------------|---------------------------------|
D|---------------------------------|---------------------------------|
A|-3-3-3-3-3-3-3-3-3-3-3-3-3-3-3-1-|-3-3-3-3-3-3-3-3-3-3-3-3-3-3-3-1-|
   Hyste____________________________ria__________________________a...

F|---------------------------------|---------------------------------|
C|---------------------------------|---------------------------------|
G|-5-5-5-5-5-5-5-5-5-5-5-5-5-5-5-5-|-4-4-4-4-4-4-4-4-----------------|
D|---------------------------------|-----------------6-6-6-6-5-5-5-5-|
A|---------------------------------|---------------------------------|
   Fales____________________________sense________________________of...

F|---------------------------------|---------------------------------|
C|---------------------------------|---------------------------------|
G|---------------------------------|---------------------------------|
D|-1-1-1-1-1-1-1-1-1-1-1-1-1-1-1-1-|-0-0-0-0-0-0-0-0-3-3-3-3-4-4-4-4-|
A|---------------------------------|---------------------------------|
  Ur      -      gen   -    cy_______

F|---------------------------------|---------------------------------|
C|---------------------------------|---------------------------------|
G|---------------------------------|---------------------------------|
D|---------------------------------|---------------------------------|
A|-3-3-3-3-3-3-3-3-3-3-3-3-3-3-3-1-|-3-3-3-3-3-3-3-3-3-3-3-3-3-3-3-1-|
   Tra_________________________pped  in__________________________my...

F|---------------------------------|---------------------------------|
C|---------------------------------|---------------------------------|
G|---------------------------------|---------------------------------|
D|---------------------------------|---------------------------------|
A|-3-3-3-3-3-3-3-3-3-3-3-3-3-3-3-1-|-3-3-3-3-3-3-3-3-3-3-3-3-3-3-3-1-|
   Pho____________________________bia____________________________pos-...

F|---------------------------------|---------------------------------|
C|---------------------------------|---------------------------------|
G|-5-5-5-5-5-5-5-5-5-5-5-5-5-5-5-5-|-4-4-4-4-4-4-4-4-----------------|
D|---------------------------------|-----------------6-6-6-6-5-5-5-5-|
A|---------------------------------|---------------------------------|
...-essed___________________________by___________________________an...

F|---------------------------------|---------------------------------|
C|---------------------------------|---------------------------------|
G|---------------------------------|---------------------------------|
D|-1-1-1-1-1-1-1-1-1-1-1-1-1-1-1-1-|-0-0-0-0-0-0-0-0-3-3-3-3-4-4-4-4-|
A|---------------------------------|---------------------------------|
...xi      -      et   -    y_______

F|---------------------------------|---------------------------------|
C|---------------------------------|---------------------------------|
G|---------------------------------|---------------------------------|
D|-6-6-6-6-6-6-6-6-6-6-6-6-6-6-6-6-|-5-5-5-5-5-5-5-5-5-5-5-5-5-5-5-5-|
A|---------------------------------|---------------------------------|
   Run____                  try  to  hide______              ov - er...

F|---------------------------------|---------------------------------|
C|---------------------------------|---------------------------------|
G|---------------------------------|---------------------------------|
D|-3-3-3-3-3-3-3-3-3-3-3-3-3-3-3-3-|-4-4-4-4-4-4-4-4-5-5-5-5-5-5-5-5-|
A|---------------------------------|---------------------------------|
...whelmed                 by this  con - flicts  delir  -   i  -...    

F|-------------------------------------------------|-------------------------------------------------|
C|--3--0--0--2--0--0--3--0--0--5--0--0--3--0--2--0-|--3--0--0--2--0--0--3--0--0--8--0--0--7--0--5--0-|
G|-------------------------------------------------|-------------------------------------------------|
D|-------------------------------------------------|-------------------------------------------------|
A|-------------------------------------------------|-------------------------------------------------|
...-um

F|-------------------------------------------------|-------------------------------------------------|
C|--3--0--0--2--0--0--3--0--0--5--0--0--3--0--2--0-|--3--0--0--2--0--0--3--0--0--8--0--0--7--0--5--0-|
G|-------------------------------------------------|-------------------------------------------------|
D|-------------------------------------------------|-------------------------------------------------|
A|-------------------------------------------------|-------------------------------------------------|

F|----------------------------12-------------------|----------------------------15-------14----12----|
C|-15-12-12-14-12-12-15-12-12----12-12-15-12-14-12-|-15-12-12-14-12-12-15-12-12----12-12----12----12-|
G|-------------------------------------------------|-------------------------------------------------|
D|-------------------------------------------------|-------------------------------------------------|
A|-------------------------------------------------|-------------------------------------------------|

F|----------------------------12-------------------|----------------------------15-------14----12----|
C|-15-12-12-14-12-12-15-12-12----12-12-15-12-14-12-|-15-12-12-14-12-12-15-12-12----12-12----12----12-|
G|-------------------------------------------------|-------------------------------------------------|
D|-------------------------------------------------|-------------------------------------------------|
A|-------------------------------------------------|-------------------------------------------------|

[Pre-Keyboard Solo]
(6/8)
F|-------------------------------------|-------------------------------------|
C|-------------------12----12-13-12----|-------------------11-----9----------|
G|-10-10-10-13-10-10----10----------13-|-10-10-10-13-10-10----10----10--9--8-|
D|-------------------------------------|-------------------------------------| 
A|-------------------------------------|-------------------------------------|

F|-------------------------------------|-------------------------------------|
C|-------------------12----12-13-12----|----------10-------------------------|
G|-10-10-10-13-10-10----10----------13-|-------------------------12----13-12-|
D|-------------------------------------|-11-11-11----11-11-10-10----10-------| 
A|-------------------------------------|-------------------------------------| (x2)

[Keyboard Solo]
(6/8)
F|-------------------------------------|-------------------------------------|
C|-------------------------------------|-------------------------------------|
G|-------------------10----10-11-10----|--------------------9-----7----------|
D|--8--8--8-11--8--8-----8----------10-|--8--8--8-11--8--8-----8-----8--7--6-| 
A|-------------------------------------|-------------------------------------| 

F|-------------------------------------|-------------------------------------|
C|-------------------------------------|-------------------------------------|
G|-------------------10----10-11-10----|-----------8-------------------------|
D|--8--8--8-11--8--8-----8----------10-|-------------------------10----11-10-| 
A|-------------------------------------|--9--9--9-----9--9--8--8-----8-------| (x2)

F|-------------------------------------|-------------------------------------|
C|-------------------10----10-11-10----|--------------------9-----7----------|
G|--8--8--8-11--8--8-----8----------11-|--8--8--8-11--8--8-----8-----8--7--6-|
D|-------------------------------------|-------------------------------------| 
A|-------------------------------------|-------------------------------------|

F|-------------------------------------|-------------------------------------|
C|-------------------10----10-11-10----|-----------8-------------------------|
G|--8--8--8-11--8--8-----8----------11-|-------------------------10----11-10-|
D|-------------------------------------|--9--9--9-----9--9--8--8-----8-------| 
A|-------------------------------------|-------------------------------------| (x2)

[Guitar Solo]
(6/8)
F|-------------------------------------|-------------------------------------|
C|-------------------------------------|-------------------------------------|
G|--------------------8-----8--9--8----|--------------------7-----5----------|
D|--6--6--6--9--6--6-----6-----------9-|--6--6--6--9--6--6-----6-----6--5--4-| 
A|-------------------------------------|-------------------------------------| 

F|-------------------------------------|-------------------------------------|
C|-------------------------------------|-------------------------------------|
G|--------------------8-----8--9--8----|-----------6-------------------------|
D|--6--6--6--9--6--6-----6-----------9-|--------------------------8-----9--8-| 
A|-------------------------------------|--7--7--7-----7--7--6--6-----6-------| (x2)

F|-------------------------------------|-------------------------------------|
C|--------------------8-----8--9--8----|--------------------7-----5----------|
G|--6--6--6--9--6--6-----6-----------9-|--6--6--6--8--6--6-----6-----6--5--4-|
D|-------------------------------------|-------------------------------------| 
A|-------------------------------------|-------------------------------------|

F|-------------------------------------|-------------------------------------|
C|--------------------8-----8--9--8----|-----------6-------------------------|
G|--6--6--6--8--6--6-----6-----------9-|--------------------------8-----9--8-|
D|-------------------------------------|--7--7--7-----7--7--6--6-----6-------| 
A|-------------------------------------|-------------------------------------| (x2)

(4/4)
F|-----------------------------------------------|-----------------------------------------------|
C|-----------------------------------------------|-----------------------------------------------|
G|-----------------------------------------------|-----------------------------------------------|
D|-8-----8--8-----8--8-----8--8--8-----8--8--6---|-8-----8--8-----8--8-----8--8--8-----8--8--6---|
A|-----------------------------------------------|-----------------------------------------------| 

F|-----------------------------------------------|-----------------------------------------------|
C|-----------------------------------------------|-----------------------------------------------|
G|-----------------------------------------------|-8-----8--8-----8--8-----9----------10\--------|
D|-8-----8--8-----8--8-----8--8--8-----8--8--6---|-----------------------------------------------|
A|-----------------------------------------------|-----------------------------------------------| 
                                          
F|-----------------------------------------------|-----------------------------------------------|
C|-----------------------------------------------|-----------------------------------------------|
G|-----------------------------------------------|-----------------------------------------------|
D|-8-----8--8-----8--8-----8--8--8-----8--8--6---|-8-----8--8-----8--8-----8--8--8-----8--8--6---|
A|-----------------------------------------------|-----------------------------------------------|
 
F|-----------------------------------------------|-----------------------------------------------|
C|-----------------------------------------------|-8--------6------------------------------------|
G|-----------------------------------------------|-------------------------6-----------5---------|
D|-8-----8--8-----8--8-----8--8--8-----8--8--6---|-------------------8---------------------------|
A|-----------------------------------------------|-----------------------------------------------| 
   
F|-----------------------------------------------|-----------------------------------------------|
C|-----------------------------------------------|-----------------------------------------------|
G|-----------------------------------------------|-----------------------------------------------|
D|-8-----8--8-----8--8-----8--8--8-----8--8--6---|-8-----8--8-----8--8-----8--8--8-----8--8--6---|
A|-----------------------------------------------|-----------------------------------------------|
 
F|-----------------------------------------------|-----------------------------------------------|
C|-----------------------------------------------|-----------------------------------------------|
G|-----------------------------------------------|-8--8--8--6--6--6------------------------------|
D|-8-----8--8-----8--8-----8--8--8-----8--8--6---|-------------------------6--6--6--6--5--5--5--5|
A|-----------------------------------------------|-------------------8--8------------------------| 

F|-----------------------------------------------|-----------------------------------------------|
C|-----------------------------------------------|-----------------------------------------------|
G|-----------------------------------------------|-----------------------------------------------|
D|-3-----3--3-----3--3-----3--3--3-----3--3--1---|-3-----3--3-----3--3-----3--3--3-----3--3--1---|
A|-----------------------------------------------|-----------------------------------------------|
 
F|-----------------------------------------------|-----------------------------------------------|
C|-----------------------------------------------|-----------------------------------------------|
G|-----------------------------------------------|-8--------6------------------------------------|
D|-3-----3--3-----3--3-----3--3--3-----3--3--1---|-------------------------6-----------5---------|
A|-----------------------------------------------|-------------------8---------------------------|

(6:13)
F|---------------------------------|---------------------------------|
C|---------------------------------|---------------------------------|
G|---------------------------------|---------------------------------|
D|---------------------------------|---------------------------------|
A|-3-3-3-3-3-3-3-3-3-3-3-3-3-3-3-1-|-3-3-3-3-3-3-3-3-3-3-3-3-3-3-3-1-|
   Help______________________________less_____________________________

F|---------------------------------|---------------------------------|
C|---------------------------------|---------------------------------|
G|---------------------------------|---------------------------------|
D|---------------------------------|---------------------------------|
A|-3-3-3-3-3-3-3-3-3-3-3-3-3-3-3-1-|-3-3-3-3-3-3-3-3-3-3-3-3-3-3-3-1-|
   Hyste____________________________ria__________________________a...

F|---------------------------------|---------------------------------|
C|---------------------------------|---------------------------------|
G|-5-5-5-5-5-5-5-5-5-5-5-5-5-5-5-5-|-4-4-4-4-4-4-4-4-----------------|
D|---------------------------------|-----------------6-6-6-6-5-5-5-5-|
A|---------------------------------|---------------------------------|
   Fales____________________________sense________________________of...

F|---------------------------------|---------------------------------|
C|---------------------------------|---------------------------------|
G|---------------------------------|---------------------------------|
D|-1-1-1-1-1-1-1-1-1-1-1-1-1-1-1-1-|-0-0-0-0-0-0-0-0-3-3-3-3-4-4-4-4-|
A|---------------------------------|---------------------------------|
  Ur      -      gen   -    cy_______

F|---------------------------------|---------------------------------|
C|---------------------------------|---------------------------------|
G|---------------------------------|---------------------------------|
D|---------------------------------|---------------------------------|
A|-3-3-3-3-3-3-3-3-3-3-3-3-3-3-3-1-|-3-3-3-3-3-3-3-3-3-3-3-3-3-3-3-1-|
   Tra_________________________pped  in__________________________my...

F|---------------------------------|---------------------------------|
C|---------------------------------|---------------------------------|
G|---------------------------------|---------------------------------|
D|---------------------------------|---------------------------------|
A|-3-3-3-3-3-3-3-3-3-3-3-3-3-3-3-1-|-3-3-3-3-3-3-3-3-3-3-3-3-3-3-3-1-|
   Pho____________________________bia____________________________pos-...

F|---------------------------------|---------------------------------|
C|---------------------------------|---------------------------------|
G|-5-5-5-5-5-5-5-5-5-5-5-5-5-5-5-5-|-4-4-4-4-4-4-4-4-----------------|
D|---------------------------------|-----------------6-6-6-6-5-5-5-5-|
A|---------------------------------|---------------------------------|
...-essed___________________________by___________________________an...

F|---------------------------------|---------------------------------|
C|---------------------------------|---------------------------------|
G|---------------------------------|---------------------------------|
D|-1-1-1-1-1-1-1-1-1-1-1-1-1-1-1-1-|-0-0-0-0-0-0-0-0-3-3-3-3-4-4-4-4-|
A|---------------------------------|---------------------------------|
...xi      -      et   -    y_______


F|---------------------------------|---------------------------------|
C|---------------------------------|---------------------------------|
G|---------------------------------|---------------------------------|
D|-6-6-6-6-6-6-6-6-6-6-6-6-6-6-6-6-|-5-5-5-5-5-5-5-5-5-5-5-5-5-5-5-5-|
A|---------------------------------|---------------------------------|
   Run____                  try  to  hide______              ov - er...

F|---------------------------------|---------------------------------|
C|---------------------------------|---------------------------------|
G|---------------------------------|---------------------------------|
D|-3-3-3-3-3-3-3-3-3-3-3-3-3-3-3-3-|-4-4-4-4-4-4-4-4-5-5-5-5-5-5-5-5-|
A|---------------------------------|---------------------------------|
...whelmed                 by this  con - flicts  delir  -   i  -...    

F|-------------------------------------------------|-------------------------------------------------|
C|--3--0--0--2--0--0--3--0--0--5--0--0--3--0--2--0-|--3--0--0--2--0--0--3--0--0--8--0--0--7--0--5--0-|
G|-------------------------------------------------|-------------------------------------------------|
D|-------------------------------------------------|-------------------------------------------------|
A|-------------------------------------------------|-------------------------------------------------|
...-um

F|-------------------------------------------------|-------------------------------------------------|
C|--3--0--0--2--0--0--3--0--0--5--0--0--3--0--2--0-|--3--0--0--2--0--0--3--0--0--8--0--0--7--0--5--0-|
G|-------------------------------------------------|-------------------------------------------------|
D|-------------------------------------------------|-------------------------------------------------|
A|-------------------------------------------------|-------------------------------------------------|

F|-------------------------------------------------|-------------------------------------------------|
C|-------------------------------------------------|-------------------------------------------------|
G|-------------------------------------------------|-------------------------------------------------|
D|--4--4--4--4--4--4--4--4--4--4--4--4-------------|--3--3--3--3--3--3--3--3--3--3--3--3-------------|
A|--------------------------------------5--5--5--5-|--------------------------------------4_________-|

F|-------------------------------------------------|-------------------------------------------------|
C|--3--0--0--2--0--0--3--0--0--5--0--0--3--0--2--0-|--3--0--0--2--0--0--3--0--0--8--0--0--7--0--5--0-|
G|-------------------------------------------------|-------------------------------------------------|
D|-------------------------------------------------|-------------------------------------------------|
A|-------------------------------------------------|-------------------------------------------------|

F|-------------------------------------------------|-------------------------------------------------|
C|--3--0--0--2--0--0--3--0--0--5--0--0--3--0--2--0-|--3--0--0--2--0--0--3--0--0--8--0--0--7--0--5--0-|
G|-------------------------------------------------|-------------------------------------------------|
D|-------------------------------------------------|-------------------------------------------------|
A|-------------------------------------------------|-------------------------------------------------|

F|-------------------------------------------------|-------------------------------------------------|
C|-------------------------------------------------|-10--------8-------------------------------------|
G|-------------------------------------------------|--------------------------8-----------7----------|
D|--4--4--4--4--4--4--4--4--4--4--4--4-------------|-------------------10----------------------------|
A|--------------------------------------5--5--5--5-|-------------------------------------------------|

F|-------------------------------------------------|
C|-------------------------------------------------|
G|-5-----------------------------------------------|
D|-------------------------------------------------|
A|-------------------------------------------------|


************************************

| /    Slide up
| \    Slide down
|(4/4) Time Signature
| ___  Hold Note

************************************

            
            
Suggest correction
Creating personal tab
Creating personal tab
You can edit any tab online and save it as your Personal.

You can edit, replace or remove any tab part or add personal notes – all changes will be seen only by you.

Personal tabs can be accessed anytime from any device, even offline.
Learn more »
Give kudos to tab author, rate the tab!
1 2 3 4 5
comments
print report bad tab
guest
You may want to rate the tab now too:
select rating
Wanna post a correction for this tab? Suggest correction