Oops, an error
Loading. Please wait.

Peruvian Skies Bass Tab

version 1
version 1

Whole song

Interactive

2,581 views 6 this week
no commentswrite comment
1 2 3 4 5
accurate
x 3
add to favorites
launch autoscroll
font size
0
reset
guitar tuner
Tab Pro tools
  • play this tab
  • loop segment
  • change instrument
  • show fretboard
  • metronome
×
Best way to learn
"Peruvian Skies"
Autoscroll
slow
fast
+/-
esc
set tempo
stop
Contributor
Band- Dream Theater
Song- Peruvian Skies

G-------0-------------2--------------0---------------------------------------|
D----------2---------------------------2-------------------------------------|
A---2-4------1----2-4------------2-4-----1----2-4-3-----2--------------------|
E-0-------------0--------3-2--0-------------0-------3-2---0------------------|
                *	      *		    * * * * * * * *

G-------0-------------2------------0-----------------------------------------|
D----------2-----------------------------3-----------------------------------|
A---2-4------1----2-4----------2-4-----3------2-4-3-----2--------------------|
E-0-------------0-------3-2--0-------1------0-------3-2---0------------------|
  *             *            *              * * * * * * * *

  Riff A 0:35					  (0:47)
G-------------------------------------------7-9------------------------------|
D-------0-2~~-----------------------------9-------------4~-4---------0-2~----|
A-----2----------------------5---4---------------------------------2---------|
E-0~-----------------0~~---3---2----0~~~---------0-0~~---------0~------------|
  There... there it is...

G-----------------------7-9---------------|---|
D---------------------9-------------4~--4-|---|
A-------5---4-----------------------------|---|
E-0~--3---2----0~~-----------0-0~~--------|---|
				End Riff A

  Pre-Chorus         (1:16)
G---------------------7/9----------------------------------------------------|
D--7~~---7~~--------9--------5~---5~-------7~--7~----------5~--5~--3~-3~-----|
A-------------7~~---------------------5~~----------7~--7~--------------------|
E----------------------------------------------------------------------------|
  Under peruvian skies...


  (1:36)					Chorus
G-------------------------------------------|------------|-------------------|
D--7-5-7~---7---7-5--5--5~--5-5-4~~-4--3~~~-|-Back-Intro-|-------------------|
A-------------7-----------------------------|------------|-------------------|
E-------------------------------------------|------------|-------------------|
  Battered and bruised...
                                 (3:16) The heavy part:
G-----------------|------------|---------------------------------------------|
D--Repeat-Riff-A--|-Pre-Chorus-|---------------------------------------------|
A-----------------|------------|---------------------------------------------|
E-----------------|------------|--1-1-1-1-1-1-1-1-1-1-1-1-1-1-1-1-1-1-1-1----|
 Hey.. I hope you..

                                       3:34
G----------------------------------------------------------------------------|
D----------------------------------------------------------------------------|
A------------2-3-5-7--------------1---------------2-3-5-7~------------1~~----|
E-0~--2-3-5~----------0~--2-3-1~----3--0~--2-3-5~-----------0~-2-3-1~--------|
				       Terror by night...

  Guitar solo:
G----------------------------------------------------------------------------|
D----------------------------------------------------------------------------|
A-5-5-5-5-5-5-5-5-5-5-----------------------3-3-3-3-3-3-3-3-3-3-3------------|
E---------------------5-5-5-5-5-5-5-5-5-5-5-----------------------3-3-3-3-3--|

G----------------------------------------------------------------------------|
D----------------------------------------------------------------------------|
A-----------5-5-5-5-5-5-5-5-5-5-------------------3-3-3-3-3-3-3-3-3-3-3-3----|
E-3-3-3-3-3---------------------5-5-5-5-5-5-5-5-5----------------------------|

G----------------------------------------------------------------------------|
D----------------------------------------------------------------------------|
A-------------------5-5-5-5-5-5-5-5-5-5-3-3-3-3-3-3-3-3-3-2-2-2-2-2-2-2-2-2--|
E-6-6-6-6-6-6-6-6-6----------------------------------------------------------|


			4:20         4:35
G---------------------|------------|--------------------------|--------------|
D---------------------|-Back-Intro-|--------------------------|--------------|
A-1-1-1-1-1-1-1-1-1-1-|-in-a-cool--|--------------------------|--------------|
E---------------------|---tempo----|-0-0--0-0--3--0-0--0-0--3-|--------------|
      End guitar solo

   4:40
G----------------------------------------------------------------------------|
D----------------------------------------------------------------------------|
A------------------------------------------------2-3-------------------------|
E-0-0-0--0-0-0--0-0-0--3-5--0-0-0--0-0-0--0-0-0-------0-0-0--0-0-0--0-0-0----|

				  4:47
G-------------------------------|--------------------------------------------|
D-------------------------------|--------------------------------------------|
A---------------------------2-1-|---------------------5-4-3------------------|
E-3-5--0-0-0--0-0-0--0-0-0------|-0-0-0--0-0-0--0-0-0--------0-0-0--0-0-0----|

G----------------------------------------------------------------------------|
D----------------------------------------------------------------------------|
A------------------------------------2-1-------------------------------------|
E-0-0-0--7-6-5--0-0-0--0-0-0--0-0-0------0-0-0--0-0-0--0-0-0--7-6-5----------|

G----------------------------------------------------------------------------|
D----------------------------------------------------------------------------|
A----------------------5-4-3-------------------------------------------------|
E-0-0-0--0-0-0--0-0-0---------0-0-0--0-0-0--0-0-0-7-6-5--0-0-0---0-0-0-------|

		 5:01			       5:17 - Riff C - 4 times
G--------------|---------------------------|-----------------------------|---|
D--------------|---------------------------|-----------------------------|---|
A-------5-4-3--|------7~~-----7~~------7~~-|---7-5---------5-------------|---|
E-0-0-0--------|-0~~------0~~------0~~-----|-0-----7-6-5-0---7-6-5-3-5-3-|---|

  (5:31) Heavy chorus
G----------------------------------------------------------------------------|
D----------------------------------------------------------------------------|
A----------------------------------------------------------------------------|
E-5--5--5-5-5-5-5--0--0--0-0-0-0-0-0--3--3--3-3-3-3-3-3-3--------------------|
B----------------------------------------------------------3--3-3-3-3-3-3-3--|

G----------------------------------------------------------------------------|
D----------------------------------------------------------------------------|
A----------------------------------------------------------------------------|
E5--5--5-5-5-5-5-5--0--0--0-0-0-0-0-0-0--3--3--3-3-3-3-3-3--2--2--2-2-2-2----|

  (5:55)
G----------------------------------------------------------------------------|
D----------------------------------------------------------------------------|
A----------------------------------------------------------------------------|
E-5-5-5-5-5-5-5-5-5-5-5-5-5--3-3-3-3-3-3-3-3-3-3-3-2-2-2-2-2-2-2-2-2-2-2-2---|
  Battered and bruised...

         			the song finishes here (6:38)
  (6:02) 			but the live version enters
				"Enter Sandman" now...
G----------------|------------|-------------------------------------------|--|
D----------------|-Back intro-|-----2----------2----------2---------------|--|
A----------------|--in-cool---|-------1-0--------1-0--------1-0-----------|--|
E-1-1-1-1-1-1-1--|---tempo----|-0-0--------0-0--------0-0-------3-0-3-0-3-|--|
 ...for haaate


..and then back to this part  |..and so mr. Petrucci play more two times, but
    play it two times...      |one octave higher, so we gonna play too :-P
G-----------------------------|---9-7---------7--------------------------|
D-----------------------------|-------9-8-7-----9-8-7-5-7-5--------------|
A---7-5---------5-------------|-7-----------7----------------------------|
E-0-----7-6-5-0---7-6-5-3-5-3-|------------------------------------------|
comments
We did not receive enough feedback on this tab! Please rate:
print report bad tab
1 2 3 4 5
I want to post or [tab]
guest
You may want to rate the tab now too:
select rating
Please do not post tabs as comments. Select "correction" instead!