Oops, an error
Loading. Please wait.

Pull Me Under Guitar Pro

version 4
131,933 views 120 this week
14 commentsread comments
1 2 3 4 5
excellent!
x 74
add to favorites
guitar tuner
Autoscroll
slow
fast
+/-
esc
set tempo
stop
Help us to improve Ultimate-Guitar.com Take our survey!
×
Filesize
Instruments
114 Kb
rhythm guitar, lead guitar, bass, percussion, keyboard #1, keyboard #2
"Pull Me Under"
demo version
Play now

or get full version for Free

Get full version now!
To learn and play this song
in Tab Pro, start free trial
Start free trial

or get $10 off Welcome Bonus

Get welcome bonus
Get access to Tab Pro version of “Pull Me Under”!
Tab Pro is a premium guitar tab service, available on PC, Mac, iOS and Android
START FREE TRIAL
Your download will start in 7 seconds
×
Enter for a chance to win a FREE lesson from The Doors’ guitarist Robby Krieger plus other great prizes!
To download “Pull Me Under” Guitar Pro tab click button below
Please note that you must have Guitar Pro software installed on your
computer in order to view this file.
comments
report bad tab
14 comments total. Showing first comments.
0 reply
Lord Of Donkeys 621 wrote on June 24 2007, 04:23 pm

this is amazing! very nice job i though i saw something wrong but i don't remember what it was because i was overcome by the awesomeness. I'll post another comment if i find it

0 reply
nilh 2,723 wrote on June 27 2007, 06:31 am

yeah great!!!!!!!!!!!!!!

+6 reply
Axvutt 54 wrote on August 29 2007, 11:47 am

Yes, good tab but there are some mistakes in the beginning. My ways are:

- Mes 34, 39: - Mes 35, 40:

S S E E E S S Q S S E E E S S Q
e|--------------------- e|---------------------
b|--------------------- b|---------------------
g|--------4/5-----7---- g|--------4/5----------
d|--------4/5-----7---- d|--------4/5-----3----
a|--2-2-2-2/3-2-2-5---- a|--2-2-2-2/3-2-2-3----
e|--0-0-0-----0-0------ e|--0-0-0-----0-0-1----

- Mes 45:

e|------------------------------------------
b|--13-13-----13-13-----13-13-----13-13-----
g|--12-12-----12-12-----11-11-----11-11-----
d|--10-10-----10-10-----10-10-----10-10-----
a|------------------------------------------
e|--------0-0-------0-0-------0-0-------0-0-

- Mes 116:

E S S S S E + H
e|-------------------
b|------------9b12---
g|----------7--------
d|--9-9-7-9----------
a|-------------------
e|-------------------

That's all I think.

guest
You may want to rate the tab now too:
select rating
Please do not post tabs as comments. Select "correction" instead!