Oops, an error
Loading. Please wait.

Root Of All Evil Bass Tab

version 1
version 1

Whole song

Interactive

12,588 views 21 this week
7 commentsread comments
1 2 3 4 5
excellent!
x 11
add to favorites
launch autoscroll
font size
0
reset
guitar tuner
Autoscroll
slow
fast
+/-
esc
set tempo
stop
Help us to improve Ultimate-Guitar.com Take our survey!
×
Author
Difficulty
intermediate
band: Dream Theater
Song: The Root Of All Evil
Album: Ocatvarium
Tuning: 4 string Eb Ab Db Gb
tabbed By ClosedRoad

Intro first drums and guitar

Intro
Gb ----------------------------------|
Db ----------------------------------|
Ab ---------------3---2-0-1-2--------| 4x
Eb -2-0-2-5-0-1-2---2---------2-3-0--|

Pre verse
Gb ------------------------------|-------------------------------|
Db ------------------------------|-------------------------------|
Ab ------------------------------|----------------------------0--|
Eb -2-0-3-2--0-3-2--0-3-2--0-2-3-|-2-0-3-2--0-3-2--0-3-2--0-2----|

Gb ------------------------------|--------------------------------|
Db ------------------------------|--------------------------------|
Ab ------------------------------|-----------------------------2--|
Eb -2-0-3-2--0-3-2--0-3-2--0-2-3-|-2-0-3-2--0-3-2--0-3-2-3--4-----|

Verse
Gb ------------------------------|-------------------------------|
Db ------------------------------|-------------------------------|
Ab ------------------------------|----------------------------0--| 4x
Eb -2-0-3-2--0-3-2--0-3-2--0-2-3-|-2-0-3-2--0-3-2--0-3-2--0-2----|

Pre Chorus
Gb ---------------------------------------------------|
Db ---------------------------------------------------|
Ab -------0-----3-2-3--------------0-----3-2-3-----3--| 2x
Eb -2-0-2----00-------00000--2-0-2----00-------0000---|

Intro 4x
Verse 4x
Pre Chorus 2x

Chorus
Gb ------------------------------------------------------|
Db ------------------------------------------------------|
Ab -2222222222222222-0000000000000000-4444444444444444---|
Eb ------------------------------------------------------|

Gb -----------------------------------------------------------------------|
Db -----------------------------------------------------------------------|
Ab --------------7--5--5555555555554444-222222222222----------------------|
Eb -222222222222------------------------------------5555-4444444444444444-|

Gb -------------------|
Db -------------------|
Ab -------------------|
Eb -3333333333333333--|

After Chorus (not sure about this part please comment)
Gb ---------------------------------------------------------------------|
Db ---------------------------------------------------------------------|
Ab -1111111111111111------------------3333333333333333-4444444444444444-|
Eb ------------------2222222222222222-----------------------------------|

Pre Verse
Gb ------------------------------|
Db ------------------------------|
Ab -------------0-------------0--| 4x
Eb -2-2-2-0--2------2---0---2----|

Verse 2
Gb -------------------|-------------------|
Db -------------------|-------------------|
Ab --------00---------|--------00-----33--| 4x
Eb -2220022--2200233--|-2220022--22002----|

After verse..play verse 2 2x

Bridge 1
Gb ---------------2----------------4--|
Db ---4---2---4--------4--2----4-5----|
Ab -----------------------------------| 4x
Eb -2---2---2---2----2------2---------|

Gb ---------------------------------------|
Db ---------------------------------------|
Ab -2-4--4---5-4-------2-4--4---5-4-------|
Eb ----------------303---------------303--|

Gb ------------------------------------------------|
Db ------------------------------------------------|
Ab --------------------0-0-0-0-2-2-2-2--2-4--4--0--|
Eb -2-2--2----0-2--2-------------------------------|

Gb -----------------------------|
Db -----------------------------|
Ab -----------------------------|
Eb -4-------2-----0-------2///--|

then rest...keyboard solo then guitar then play..

Start guitar solo

Bridge 2
Gb --------------------------------------------------------------|
Db --------------------------------------------------------------|
Ab -----------------------------------------------------------2--| 2x
Eb -4-2-5-4--2-5-4--2-5-4--2-4-5---4-2-5-4--2-5-4--2-5-4--2-4----|

Intro 4x

Verse part bit higher
Gb -------------------------------------------------------------|
Db ----------------------------------------------------------0--|
Ab -2-0-3-2--0-3-2--0-3-2--0-2-3--2-0-3-2--0-3-2--0-3-2--0-2----| 2x
Eb -------------------------------------------------------------|

Pre chorus 2x
   End Guitar solo
Chorus 1x
After chorus 1x

After chorus variation
Gb ----------------------------------------------------------------------|
Db ----------------------------------------------------------------------|
Ab -1111111111111111------------------7777777777335555-4444444444444444--|
Eb ------------------1111111111111111------------------------------------|

Intro 4x

Intro variation (takes some practice but sounds oke)
Gb ----------------------------------|
Db ---------------4---2--------------|
Ab -------4-------------0-1-2--------| 4x
Eb -2-0-2---0-1-2---2---------0-3-0--|

End on Eb -2---|

Finaly finished
Have Fun
I'm sure there are some foulds in this tab so veel free to comment.
greetings ClosedRoad
Suggest correction
comments
print report bad tab
7 comments total. Showing first comments.
0 reply
Bass Pants 1,920 wrote on August 18 2007, 10:28 pm

i only saw one little thing wrong, in the pre-verse and verse 2, the first 0's on the Ab string should be 5's on the Eb (like in the intro)

0 reply
SoftParade1967 502 wrote on December 31 2007, 06:14 pm

Fuckin perfect! Keep the tabs comin man!

+4 reply
BOB_013 10 wrote on February 21 2008, 08:22 am

this tab is amazingly amazing,lol, it's great to find some dream theater tabs written for a 4 string =]

guest
You may want to rate the tab now too:
select rating
Please do not post tabs as comments. Select "correction" instead!