Oops, an error
Loading. Please wait.

Sacrificed Sons Bass Tab

version 2
version 2

Whole song

Interactive

19 views 3 this week
no commentswrite comment
1 2 3 4 5
3 more votes to show rating
add to favorites
launch autoscroll
font size
0
reset
guitar tuner
Autoscroll
slow
fast
+/-
esc
set tempo
stop
Help us to improve Ultimate-Guitar.com Take our survey!
×
Author
Difficulty
intermediate
Sacrificed Sons - Dream Theater


(0.57) [Intro] [piano only]                                     

6/8  
C|---------------|---------------|---------------|---------------|
G|---------------|---------------|---------------|---------------|
D|---------------|---------------|---------------|---------------|
A|---------------|---------------|---------------|---------------|
E|---------------|---------------|---------------|---------------|
B|---------------|---------------|---------------|---------------|

    H.                              H.              H.
C|---------------|---------------|---------------|---------------|
G|---------------|---------------|---------------|---------------|
D|---------------|---------------|---------------|---------------|
A|---------------|---------------|---------------|--2------------|
E|--0------------|--L------------|--2------------|---------------|
B|---------------|---------------|---------------|---------------|



(1.16) [Verse 1]

     H.                              H.              
C||---------------|---------------|---------------|---------------|
G||---------------|---------------|---------------|---------------|
D||*--------------|---------------|---------------|---------------|
A||*--------------|---------------|---------------|---------------|
E||--0------------|--L------------|--0------------|--L------------|
B||---------------|---------------|---------------|---------------|
                                                               
    H.              H.              H.              H.           x2   
C|---------------|---------------|---------------|---------------||
G|---------------|---------------|---------------|---------------||
D|---------------|---------------|---------------|--------------*||
A|---------------|--3------------|---------------|--2-----------*||
E|--0------------|---------------|--2------------|---------------||
B|---------------|---------------|---------------|---------------||



(1.55) [Chorus 1]

    H.              E.  E  S E  S S E     H        E  E     Q.      Q.   
C|---------------|---------------------|-----------------|------------------|
G|---------------|--------------5------|--------------7--|--7\--------------|
D|---------------|-----------5----5----|-----------7-----|------------------|
A|--3------------|--3---3--3--------3--|--5--------------|----------5\------|
E|---------------|---------------------|-----------------|------------------|
B|---------------|---------------------|-----------------|------------------|


    H.              E.  E  S E  S S E      H.               H.
C|---------------|---------------------|-----------------|------------------|
G|---------------|--------------5------|-----------------|------------------|
D|---------------|-----------5----5----|-----------------|------------------|
A|--3------------|--3---3--3--------3--|--5\-------------|------------------|
E|---------------|---------------------|-----------------|------------------|
B|---------------|---------------------|-----------------|--3---------------|




(2.15) [Post-Chorus 1]

    Q.        E  E     H.              Q.        E  E     H.
C|------------------|---------------|------------------|---------------|   *these high notes are held like 
G|---------------9--|--9------------|---------------9--|--9------------|     a chord. They're often played 
D|------------9--L--|--L------------|------------9--L--|--L------------|     with the 5th fret harmonics 
A|------------------|---------------|------------------|---------------|     on the E / A strings, but
E|--0---------------|---------------|--0---------------|---------------|     from watching Myung play live
B|------------------|---------------|------------------|---------------|     you can see he's around the 9th
                                                                             fret area. 
    H.                 H.              H.                 H.
C|------------------|---------------|------------------|---------------|
G|------------------|---------------|------------------|---------------|
D|------------------|---------------|------------------|---------------|
A|------------------|--3------------|------------------|--2------------|
E|--0---------------|---------------|--2---------------|---------------|
B|------------------|---------------|------------------|---------------|



(2.34) [Verse 2]
  
   S S   S   S       S S   S   S Q.     S S   S   S       S S   S   S Q.  
C|-----------------|------------------|-----------------|------------------|
B|-----------------|------------------|-----------------|------------------|
G|-----------------|------------------|-----------------|------------------|
D|-----------------|-------------7\~--|-----------------|-------------7\~--|
A|-0-0---0---0-----|-0-0---0---0------|-0-0---0---0-----|-0-0---0---0------|
E|-----------------|------------------|-----------------|------------------|

   S S   S   S       S S   S   S        S S   S   S       S S   S  S S S S S S S  
C|-----------------|------------------|-----------------|------------------------|
B|-----------------|------------------|-----------------|------------------------|
G|-----------------|------------------|-----------------|------------------------|
D|-----------------|-3-3---3---3------|-----------------|-2-2---2--0-2-3-2-0-2-3-|
A|-0-0---0---0-----|------------------|-2-2---2---2-----|------------------------|
E|-----------------|------------------|-----------------|------------------------|



(2.54) [Chorus 2]

    H.              E.  S S  E  S S E    H        E  E     Q.      Q.   
C|---------------|--------------------|-----------------|------------------|
G|---------------|--------------5-----|-----------------|----------7-------|
D|---------------|-----------5----5---|-----------7-----|------------------|
A|--3------------|--3---3-3---------3-|--5-----------5--|--5---------------|
E|---------------|--------------------|-----------------|------------------|
B|---------------|--------------------|-----------------|------------------|

    H.              E. S S S E  S S E    H        E  E     Q.      Q.   
C|---------------|--------------------|-----------------|------------------|
G|---------------|--------------5-----|-----------------|----------7-------|
D|---------------|-----------5----5---|-----------7-----|------------------|
A|--3------------|--3--3-3-3--------3-|--5-----------5--|--5---------------|
E|---------------|--------------------|-----------------|------------------|
B|---------------|--------------------|-----------------|------------------|

    H.              E. S S S E  S S E    H        E  E     Q.      Q.   
C|---------------|--------------------|-----------------|------------------|
G|---------------|--------------5-----|-----------------|------------------|
D|---------------|-----------5----5---|-----------7-----|---------/12~-----|
A|--3------------|--3--3-3-3--------3-|--5-----------5--|--5---------------|
E|---------------|--------------------|-----------------|------------------|
B|---------------|--------------------|-----------------|------------------|

    Q.     E  E     Q.         E  E      Q.       E  E     Q.        E  E
C|---------------|--------------------|-----------------|------------------|
G|---------------|--------------------|-----------------|------------------|
D|---------5-----|--------------------|-----------------|------------------|
A|--3---------3--|--3-----------------|-----------------|------------------|
E|---------------|-------------2--3---|--5--------5--3--|--2---------3--2--|
B|---------------|--------------------|-----------------|------------------|



(3.33) [Post-Chorus 2]
                                                                           |-3-| 
    Q    E    Q.       Q    E    E  S  E         Q    E    Q.      Q    E  S S S S S E   
C|-------------------|-----------------------|------------------|-----------------------|
G|-------------------|-----------------------|------------------|-----------------------|
D|-------------------|-----------------------|------------------|-----------------------|
A|-------------------|-----------------------|------------------|----------7-5-------5--|
E|--0----0--/12\~----|-0---0--/12--10-12\----|-0----0--/12\~----|--0----0------7-5-7----|
B|-------------------|-----------------------|------------------|-----------------------|
                                                
  Q    E    Q.          Q.            E   E     Q.     E  E  E     Q.            E   E   
C|-------------------|-----------------------|------------------|-----------------------|
G|-------------------|-----------------------|------------------|-----------------------|
D|-------------------|-----------------------|------------------|-----------------------|
A|-------------------|-----------------------|------------------|--2--------------------|
E|--0----0--/12\~----|----------------3---1--|--2---------2--2--|----------------3---2--|
B|-------------------|--1--------------------|------------------|-----------------------|
                                                                           |-3-| 
    Q    E    Q.       Q   S S   E  S  E         Q    E    Q.      Q    E  S S S S S E   
C|-------------------|-----------------------|------------------|-----------------------|
G|-------------------|-----------------------|------------------|-----------------------|
D|-------------------|-----------------------|------------------|-----------------------|
A|-------------------|-----------------------|------------------|----------7-5-------5--|
E|--0----0--/12\~----|-0---0-0-/12--10-12\---|-0----0--/12\~----|--0----0------7-5-7----|
B|-------------------|-----------------------|------------------|-----------------------|
                                                  
  Q    E    Q.          Q.            E   E     Q.     E  E  E     Q.         Q.    
C|-------------------|-----------------------|------------------|-----------------------|
G|-------------------|-----------------------|------------------|-----------------------|
D|-------------------|-----------------------|------------------|-----------------------|
A|-------------------|-----------------------|------------------|--2--------------------|
E|--0----0--/12\~----|--------------------0--|--2---------2--2--|-------------1---------|
B|-------------------|--1-------------1------|------------------|-----------------------|




(4.12) [Bridge] [solo bass break]

6/4
    E E E E E   E E   E  E   E  E  E E  E  E  E   E E E E E   E E   E  E   E E E E E E E E E E E E   
C|-------------------------|--------------------|------------------------|-------------------------|
G|-------------------------|--------------------|------------------------|-------------------------|
D|-------------------------|--------------------|------------------------|-------------------------|
A|----7-6-7-5---7-4---3--7-|--------------------|---7-6-7-5---7-4---3--7-|-------------------------|
E|--0----------------------|-7--6--5-3--5--6--7-|-0----------------------|-7-0-6-0-5-3-0-5-0-6-0-7-|
B|-------------------------|--------------------|------------------------|-------------------------|



   E E E E E   E E   E  E   E E E E E E E E E E E E    
C|------------------------|--------------------------|
G|------------------------|--------------------------|
D|*-----------------------|-------------------------*|    x4
A|*--7-6-7-5---7-4---3--7-|-------------------------*|    
E|-0----------------------|-7-0-6-0-5-3-0-5-0-6-0-7--|
B|------------------------|--------------------------|

5/8                                      7/8   
   E E E E E   E E  E E  E    E E E E E    E E  E  E E  E  E
C|-----------|--------------|------------|-------------------|
G|-----------|--------------|------------|-----------12-11---|
D|-----------|--------------|---9-8-9----|---12-11-----------|
A|---7-6-7-5-|---10-9-10----|---------10-|-------------------|
E|-0---------|-0---------11-|-0----------|-0-------0-------0-|
B|-----------|--------------|------------|-------------------|



(4.41) [Bridge] [Solos Riff 2]

4/4                 7/8             4/4 
   E E E E E E E E   E E E E E E E   E E E E E E E E   E E E E E E E E    
C|-----------------|---------------|-----------------|-----------------|
G|-----------------|---------------|-----------------|-----------------|
D|*----------------|---------------|-----------------|----------------*|     x2
A|*----------------|-----0-1-2-----|-----------------|-----0-1-2------*|
E|-2-0-2-3-2-0-2-0-|-2-3-------3-0-|-2-0-2-3-2-0-2-0-|-2-3-------3-2-0-|
B|-----------------|---------------|-----------------|-----------------|



4/4                 7/8             4/4                                3/8
   E E E E E E E E   E E E E E E E   E E E E E E E E   E E E E E E E E   E E E  
C|-----------------|---------------|-----------------|-----------------|-------|
G|-----------------|---------------|-----------------|-----------------|-------|
D|-----------------|---------------|-----------------|-----------------|-------|
A|-----------------|-----0-1-2-----|-----------------|-----0-1-2-------|-5-4---|
E|-2-0-2-3-2-0-2-0-|-2-3-------3-0-|-2-0-2-3-2-0-2-0-|-2-3-------3-2-0-|-----0-|
B|-----------------|---------------|-----------------|-----------------|-------|

4/4                 7/8             4/4                                6/8
   E E E E E E E E   E E E E E E E   E E E E E E E E   E E E E E E E E   E E E E  E E 
C|-----------------|---------------|-----------------|-----------------|--------------|
G|-----------------|---------------|-----------------|-----------------|--------------|
D|-----------------|---------------|-----------------|-----------------|--------------|
A|-----------------|-----0-1-2-----|-----------------|-----0-1-2-------|-5-4---10-9---|
E|-2-0-2-3-2-0-2-0-|-2-3-------3-0-|-2-0-2-3-2-0-2-0-|-2-3-------3-2-0-|-----0------0-|
B|-----------------|---------------|-----------------|-----------------|--------------|



(5.04) [Keyboard Solo]

6/4
    E E E E E   E E   E  E     E  E E E E E E E E E   
C|--------------------------|-----------------------|
G|--------------------------|-----------------------|
D|*-------------------------|----------------------*|    x4
A|*--7-6-7-5---7-4---3--7---|----------------------*|
E|------------------------7-|--6--5-3-0-5-0-6-0-7-0-|
B|--------------------------|-----------------------|


4/4                 7/8             4/4                                3/8
   E E E E E E E E   E E E E E E E   E E E E E E E E   E E E E E E E E   E E E  
C|-----------------|---------------|-----------------|-----------------|-------|
G|-----------------|---------------|-----------------|-----------------|-------|
D|-----------------|---------------|-----------------|-----------------|-------|
A|-----------------|-----0-1-2-----|-----------------|-----0-1-2-------|-5-4---|
E|-2-0-2-3-2-0-2-0-|-2-3-------3-0-|-2-0-2-3-2-0-2-0-|-2-3-------3-2-0-|-----0-|
B|-----------------|---------------|-----------------|-----------------|-------|

4/4                 7/8             4/4                                6/8
   E E E E E E E E   E E E E E E E   E E E E E E E E   E E E E E E E E   E E E E  E E 
C|-----------------|---------------|-----------------|-----------------|--------------|
G|-----------------|---------------|-----------------|-----------------|--------------|
D|-----------------|---------------|-----------------|-----------------|--------------|
A|-----------------|-----0-1-2-----|-----------------|-----0-1-2-------|-5-4---10-9---|
E|-2-0-2-3-2-0-2-0-|-2-3-------3-0-|-2-0-2-3-2-0-2-0-|-2-3-------3-2-0-|-----0------0-|
B|-----------------|---------------|-----------------|-----------------|--------------|

4/4                 7/8             4/4                                3/8
   E E E E E E E E   E E E E E E E   E E E E E E E E   E E E E E E E E   E E E  
C|-----------------|---------------|-----------------|-----------------|-------|
G|-----------------|---------------|-----------------|-----------------|-------|
D|-----------------|---------------|-----------------|-----------------|-------|
A|-----------------|-----0-1-2-----|-----------------|-----0-1-2-------|-5-4---|
E|-2-0-2-3-2-0-2-0-|-2-3-------3-0-|-2-0-2-3-2-0-2-0-|-2-3-------3-2-0-|-----0-|
B|-----------------|---------------|-----------------|-----------------|-------|

4/4                 7/8             4/4                                6/8
   E E E E E E E E   E E E E E E E   E E E E E E E E   E E E E E E E E   E E E E  E E   E  E  E E  E   E
C|-----------------|---------------|-----------------|-----------------|--------------|------------------|
G|-----------------|---------------|-----------------|-----------------|--------------|---------12-11----|
D|-----------------|---------------|-----------------|-----------------|--------------|-12-11------------|
A|-----------------|-----0-1-2-----|-----------------|-----0-1-2-------|-5-4---10-9---|------------------|
E|-2-0-2-3-2-0-2-0-|-2-3-------3-0-|-2-0-2-3-2-0-2-0-|-2-3-------3-2-0-|-----0------0-|-------0--------0-|
B|-----------------|---------------|-----------------|-----------------|--------------|------------------|



(5.46) [Guitar Solo]

6/4
    E E E E E   E E   E  E     E  E E E E E E E E E   
C|--------------------------|-----------------------|
G|--------------------------|-----------------------|
D|*-------------------------|----------------------*|    x4
A|*--7-6-7-5---7-4---3--7---|----------------------*|
E|------------------------7-|--6--5-3-0-5-0-6-0-7-0-|
B|--------------------------|-----------------------|



4/4                 7/8             4/4 
   E E E E E E E E   E E E E E E E   E E E E E E E E   E E E E E E E E     
C|-----------------|---------------|-----------------|-----------------|
G|-----------------|---------------|-----------------|-----------------|
D|*----------------|---------------|-----------------|----------------*|   x3
A|*----------------|-----0-1-2-----|-----------------|-----0-1-2------*|
E|-2-0-2-3-2-0-2-0-|-2-3-------3-0-|-2-0-2-3-2-0-2-0-|-2-3-------3-2-0-|
B|-----------------|---------------|-----------------|-----------------|

4/4                 7/8             4/4               12/8 
   E E E E E E E E   E E E E E E E   E E E E E E E E   E E E E E E E E E E E E     
C|-----------------|---------------|-----------------|-------------------------|
G|-----------------|---------------|-----------------|-------------------------|
D|*----------------|---------------|-----------------|-----------------0-2-0---|
A|*----------------|-----0-1-2-----|-----------------|-----0-1-2-------------4-|
E|-2-0-2-3-2-0-2-0-|-2-3-------3-0-|-2-0-2-3-2-0-2-0-|-2-3-------3-2-0---------|
B|-----------------|---------------|-----------------|-------------------------|




(6.24) [Bridge II]

   E.  E  S Q.        E.  E  S E  S S E     E.  S S S Q   S   E.  E  S E  S S E  
C|------------------|---------------------|-----------------|-------------------|
G|----------4-------|--------------4------|-----------5-----|-------------5-----|
D|--------4---------|-----------4----4----|-------5-------5-|----------5----5---|
A|-2---2------------|--2---2--2--------2--|-3---3---3-------|-3---3--3--------3-|
E|------------------|---------------------|-----------------|-------------------|
B|------------------|---------------------|-----------------|-------------------|

  
    E.  E  S Q.        E.  E  S S S E  E     Q.          E    Q.     S S E  E    
C|------------------|---------------------|-----------------|-------------------|
G|------------------|-------------9-------|-----------------|-7------7----------|
D|------------------|-----------9---9-----|--------------7--|----------7--------|
A|-----------7------|------------------7--|--5--------------|------------5--5\--|
E|--0---0--0--------|--0---0--0-----------|-----------------|-------------------|
B|------------------|---------------------|-----------------|-------------------|


   E.  E  S Q.   E     E.  E  S E  S S E    E.  E  S  Q.      E. E  S S S E  S S   
C|------------------|---------------------|-----------------|--------------------|
G|----------4-------|--------------4------|-----------5-----|---------5----------|
D|--------4------4--|-----------4----4----|-----------------|-----------5------5-|
A|-2---2------------|--2---2--2--------2--|-3---3--3--------|-3--3--3-----3--3---|
E|------------------|---------------------|-----------------|--------------------|
B|------------------|---------------------|-----------------|--------------------|


   E.  E  S E  S S E    S E   E.  E  S S E    E. E   S Q.     E.  E  S S S S S S S 
C|--------------------|---------------------|---------------|----------------------|
G|------------------9-|-----------9---------|----7-----7----|----------5-7-5-4-----|
D|-------------7/9----|-7/9----------7/9----|---------------|------------------5-6-|
A|----------7---------|-------7-----------7-|-5------5------|-5---5--5-------------|
E|-0---0--0-----------|---------------------|---------------|----------------------|
B|--------------------|---------------------|---------------|----------------------|

 
    Q.        E  E     Q.        E  E  
C|------------------|------------------|
G|------------------|------------------|
D|------------------|------------------|
A|--0---------2--3--|------------------|
E|------------------|--2---------3--2--|
B|------------------|------------------|



(7.01) [Bridge III]

    E      E          E       E  S E.     E       E          E  S S E   S S S E. 
C|-----------------|-------------------|------------------|------------------------|
G|-----------------|-------------------|------------------|------------------------|
D|-----------------|-------------------|------------------|----8/7\8----------7\~--|
A|-----------------|----------1----0---|------------------|-----------------9------|
E|--0------0-------|--0----------0-----|--0-------0-------|-0-------------8--------|
B|-----------------|-------------------|------------------|-------------7----------|

    E      E          E       E  S E.     E       E          E.    E.   E.    E.
C|-----------------|-------------------|------------------|------------------------|
G|-----------------|-------------------|------------------|------------------------|
D|-----------------|-------------------|------------------|------------------------|
A|-----------------|----------1----0---|------------------|------------------------|
E|--0------0-------|--0----------0-----|--0-------0-------|--6-----5---------------|
B|-----------------|-------------------|------------------|-------------4-----3----|

    E.     E          E       E  S E.     E.      E         E  S S E    S S S E. 
C|-----------------|-------------------|------------------|------------------------|
G|-----------------|-------------------|------------------|------------------------|
D|-----------------|-------------------|------------------|----8/7\8----------7\~--|
A|--7\~------------|----------1----0---|--7\~-------------|-----------------9------|
E|---------0-------|--0----------0-----|----------0-------|-8-------------8--------|
B|-----------------|-------------------|------------------|-------------7----------|


    E.     E          E       E  S E.     E       E          E.    E.   E.    E.
C|-----------------|-------------------|------------------|------------------------|
G|-----------------|-------------------|------------------|------------------------|
D|-----------------|-------------------|------------------|------------------------|
A|--7\~------------|----------1----0---|------------------|------------------------|
E|---------0-------|--0----------0-----|--0-------0-------|--6-----5---------------|
B|-----------------|-------------------|------------------|-------------4-----3----|




    Q.        E  E     H.              Q.        E  E     Q.        E  E 
C|------------------|---------------|------------------|------------------|
G|------------------|---------------|------------------|------------------|
D|--2---------4--5--|---------------|------------------|------------------|
A|------------------|--4------------|------------3--1--|--2---------------|
E|------------------|---------------|--2---------------|------------3--2--|
B|------------------|---------------|------------------|------------------|


    Q.        E  E     H.              Q.        E  E    Q.      Q.      
C|------------------|---------------|------------------|------------------|
G|------------------|---------------|------------------|------------------|
D|------------4--5--|---------------|------------------|--1---------------|
A|------------------|--3------------|--0---------2--3--|---------2--------|
E|--0---------------|---------------|------------------|------------------|
B|------------------|---------------|------------------|------------------|



(7.50) [Verse 3]

    S S  S  S  S  S  S   S  S  S S S   S S S   S S  S  S  S  S  S   S  S  S S S   S S S   
C|----------------------|---------------------|--------------------|---------------------|
G|----------------------|---------------------|--------------------|---------------------|
D|*---------------------|---------2-----------|--------------------|---------4-----------|
A|*---------------------|-----------------1---|--------------------|-------------------1-|
E|---0-0--0--0--0--0--0-|-0--0--0---0---0---3-|-0-0--0--0--0--0--0-|-0--0--0---0---0-3---|
B|----------------------|---------------------|--------------------|---------------------|


    S S  S  S  S  S  S   S  S  S S S   S S S   S S  S  S  S  S  S    S S  S  S S S  S S S   
C|----------------------|---------------------|--------------------|----------------------|
G|----------------------|---------------------|--------------------|----------------------|
D|----------------------|---------5-----------|--------------------|----------------------|
A|----------------------|-----------------1---|-3-3--3--3--3--3--3-|------------------1-2-|
E|---0-0--0--0--0--0--0-|-0--0--0---0---0---3-|--------------------|-2-2--2--2-1-1--1-----|
B|----------------------|---------------------|--------------------|----------------------|


    S S  S  S  S  S  S   S  S  S S S   S S S   S S  S  S  S  S  S   S  S  S S S   S S S   
C|----------------------|---------------------|--------------------|---------------------|
G|----------------------|---------------------|--------------------|---------------------|
D|*---------------------|---------2-----------|--------------------|---------4-----------|
A|*---------------------|-----------------1---|--------------------|-------------------1-|
E|---0-0--0--0--0--0--0-|-0--0--0---0---0---3-|-0-0--0--0--0--0--0-|-0--0--0---0---0-3---|
B|----------------------|---------------------|--------------------|---------------------|


    S S  S  S  S  S  S   S  S  S S S   S S S   S S  S  S  S  S  S    S S  S  S S S  S  S   
C|----------------------|---------------------|--------------------|---------------------|
G|----------------------|---------------------|--------------------|---------------------|
D|----------------------|---------5-----------|--------------------|---------------------|
A|----------------------|-----------------1---|-3-3--3--3--3--3--3-|-----------2-2--2--2-|
E|---0-0--0--0--0--0--0-|-0--0--0---0---0---3-|--------------------|-2-2--2--2-----------|
B|----------------------|---------------------|--------------------|---------------------|



(7.50) [Chorus 3]

   E. E  S Q.        E.  E  S E  S S E   E.  E  S Q   S S   E.  E  S  E  S S S S  
C|-----------------|-------------------|------------------|----------------------|
G|-----------------|-------------5-----|----------7---7---|----------------7-----|
D|-----------------|-----5----5----5---|-----7----------7-|----------/7--7---7---|
A|-3--3--3-3-------|-3------3--------3-|-5------5---------|-5---5--5-----------5-|
E|-----------------|-------------------|------------------|----------------------|
B|-----------------|-------------------|------------------|----------------------|

   H. S  E Q   S S   E.   S S E  S S E   E.   E   S  Q.      S S Q    Q.   
C|-----------------|-------------------|------------------|------------------|
G|-----------------|-------------5-----|-------------7----|--7---------------|
D|---------------5-|----------5----5---|------7-----------|----7-------------|
A|-3--3--3-3---3---|-3----3-3--------3-|-5--------5-------|------5----5------|
E|-----------------|-------------------|------------------|------------------|
B|-----------------|-------------------|------------------|------------------|

   E.  S S S Q.      E.  E  S E  S S E   E.  S S S Q        E.  S S S Q.   
C|-----------------|-------------------|------------------|------------------|
G|-----------------|-------------5-----|------------------|------------------|
D|-----------------|----------5----5---|------------------|-----------/12~---|
A|-3---3-3-3-3-----|-3---3--3--------3-|-5---5-5-5-5------|-5---5-5-5--------|
E|-----------------|-------------------|------------------|------------------|
B|-----------------|-------------------|------------------|------------------|

    Q.       E  E     Q.   E  E  E  E     Q.        E  E     Q.        E  E
C|-----------------|-------------------|------------------|------------------|
G|-----------------|--5----------------|------------------|------------------|
D|-----------5-----|-------2-----------|------------------|------------------|
A|--3-----------3--|----------3--------|------------------|------------------|
E|-----------------|-------------2--3--|--5---------5--3--|--2---------3--2--|
B|-----------------|-------------------|------------------|------------------|




(8.56) [Post-Chorus 3]


    Q.        E  E     Q.          E  E    Q.     E  E  E     Q.          E  E    .            
C|------------------|--------------------|-----------------|--------------------|
G|---------------9--|--9-----------------|--------------9--|--9-----------------|
D|------------9--L--|--L-----------------|-----------9--L--|--L-----------------|
A|------------------|--------------------|-----------------|--------------------|
E|--0---------------|--------------3--2--|-0---------------|--------------3--2--|
B|------------------|--------------------|-----------------|--------------------|

    Q.                Q.           E  E    Q.        E  E    Q.         Q.    .            
C|------------------|--------------------|-----------------|--------------------|
G|------------------|--------------------|-----------------|--------------------|
D|------------------|--------------------|-----------------|-----------/9~------|
A|------------------|--------------------|-----------------|-2------------------|
E|--0---------------|-----------------0--|-2---------2--2--|--------------------|
B|------------------|-1------------1-----|-----------------|--------------------|

    Q.        E  E     Q.          E  E    Q.     E  E  E     Q.          E  E    .            
C|------------------|--------------------|-----------------|--------------------|
G|---------------9--|--9-----------------|--------------9--|--9-----------------|
D|------------9--L--|--L-----------------|-----------9--L--|--L-----------------|
A|------------------|--------------------|-----------------|--------------------|
E|--0---------------|--------------3--2--|-0---------------|--------------3--2--|
B|------------------|--------------------|-----------------|--------------------|

    Q.     E  Q.       Q.         E   E    Q.        E  E    Q.         Q.    .            
C|------------------|--------------------|-----------------|--------------------|
G|------------------|--------------------|-----------------|--------------------|
D|------------------|--------------------|-----------------|--------------------|
A|------------------|--------------------|-----------------|-2------------------|
E|--0------0--0-----|-3-----------3---3--|-2---------2--2--|------------1-------|
B|------------------|--------------------|-----------------|--------------------|


(9.29) [Outro] 

6/4
   E E E E E   E E   E  E   E E E E E E E E E E E E    
C|------------------------|--------------------------|
G|------------------------|--------------------------|
D|*-----------------------|-------------------------*|    x4
A|*--7-6-7-5---7-4---3--7-|-------------------------*|
E|-0----------------------|-7-0-6-0-5-3-0-5-0-6-0-7--|
B|------------------------|--------------------------|


6/8
   Q.         E  E     Q.        E  E     Q.        E  E    Q.        E  E  
C|------------------|------------------|------------------|-----------------|
G|------------------|------------------|------------------|-----------------|
D|*-----------------|------------------|--1---------2--4--|-----------------|
A|*--0--------2--3--|---------------0--|------------------|-2---------------|
E|------------------|--2---------3-----|------------------|-----------3--2--|
B|------------------|------------------|------------------|-----------------|

    Q.        E  E     Q.        E  E     Q.        E  E    Q.      Q.          
C|------------------|------------------|------------------|-----------------|
G|------------------|------------------|------------------|-----------------|
D|------------4--5--|------------0--2--|------------------|----------------*|   x2
A|------------------|--4---------------|--1---------2--4--|--------/9~-----*|
E|--0---------------|------------------|------------------|-2---------------|
B|------------------|------------------|------------------|-----------------|


    E      E          E       E  S E.     E       E         E        E  S E.  
C|-----------------|-------------------|------------------|-------------------|
G|-----------------|-------------------|------------------|-------------------|
D|-----------------|-------------------|------------------|-------------------|
A|-----------------|----------1----0---|------------------|----------3----1---|
E|--0------0-------|--0----------0-----|--0-------0-------|-0-----------0-----|
B|-----------------|-------------------|------------------|-------------------|

    E      E          E       E  S E.     E       E         E.  E.   E.   E.     Q.
C|-----------------|-------------------|------------------|-------------------|------------||
G|-----------------|-------------------|------------------|-------------------|------------||
D|-----------------|-------------------|------------------|-------------------|------------||
A|--7\~------------|----------1----0---|------------------|-3--------1--------|------------||
E|------- -0-------|--0----------0-----|--0-------0-------|-----2---------1---|------------||
B|-----------------|-------------------|------------------|-------------------|-5\---------||


Duration Legend
---------------
W - whole
H - half
Q - quarter
E - 8th
S - 16th
. - note dotted
|-n-|  - n-tuplets

************************************

| *  Natural harmonic
| \  Slide down
| /  Slide up
| ~  Vibrato
| .  Staccato
L - tied note (let ring)
/ -  slide into from below or out of upwards
\ -  slide into from above or out of downwards
~ - vibrato
** sections indicate repeats.

************************************
Suggest correction
Give kudos to tab author, rate the tab!
1 2 3 4 5
comments
print report bad tab
guest
You may want to rate the tab now too:
select rating
Wanna post a correction for this tab? Suggest correction