Oops, an error
Loading. Please wait.

Scenes From A Memory album bass

version 1
version 1

Album

  • This version has the full album consecutively for the bass part.

Interactive

25 views 3 this week
no commentswrite comment
1 2 3 4 5
3 more votes to show rating
add to favorites
×
Save as Personal and add changes to this tab that will be seen only by you. Learn more ›
×
You can save this tab as Personal to edit and correct it or add notes. All changes will be seen only by you. Learn more »
launch autoscroll
font size
0
reset
guitar tuner
edit
Autoscroll
slow
fast
+/-
esc
set tempo
stop
About this tab version
This version has the full album consecutively for the bass part. Was this info helpful? Yes No
        Dream Theater - Scenes From A Memory


1. Regression
(no bass)

2. Overture 1928

Gtr I (B E A D G C) - 

    Moderately Q=111
   4/4                                 2/4
    Gtr I
    |-3-|     |-3-| |-3-|   |-3-|       |-3-|
    S S S e E S S S S S S e S S S e 10x S S S e Q
||-----------------------------------||------------|
||o---------------------------------o||------------|
||-----------------------------------||------------|
||-----------------------------------||------------|
||o---------------------------------o||------------|
||--3-3-3-3---3-3-3-3-3-3-3-3-3-3-3--||-3-3-3-3----|


 4/4
  E E E E E E E E   E E E E E E E E   E E E E S S S S S S E
|-----------------|-----------------|-----------------------|
|-----------------|-----------------|-----------------------|
|-----------------|-----------------|-----------------------|
|-----------------|-----------------|---------3h5-5-5-3h5-5-|
|-----------------|-----------------|-----------------------|
|-3-3-3-3-3-3-3-1-|-3-3-3-3-3-3-3-1-|-3-3-3-3---------------|


  E E E E S S S S S S E   E E E E E E E E   E E E E E E E E
|-----------------------|-----------------|------------------|
|-----------------------|-----------------|------------------|
|-----------------------|-----------------|------------------|
|---------3h5-5-5-3h5-5-|-----------------|------------------|
|-----------------------|-----------------|------------------|
|-3-3-3-3---------------|-3-3-3-3-3-3-3-1-|-3-3-3-3-3-3-3-1--|


                          |----6----| |----6----| |----6----| |----6----|
  E E E E S S S S S S E   S S S S S S S S S S S S S S S S S S S S S S S S
|-----------------------|-8-9-8-6------------------------------------------|
|-----------------------|---------9-7-6-9-7-6------------------------------|
|-----------------------|---------------------9-7-6-9-7-6------------------|
|---------3h5-5-5-3h5-5-|---------------------------------9-7-5-9-7-5------|
|-----------------------|---------------------------------------------9-7--|
|-3-3-3-3---------------|--------------------------------------------------|


  E. S E E +E  E S S E   E. S S S E +E  E E E   E. S E E +E  E +E  E
|----------------------|----------------------|----------------------|
|----------------------|----------------------|----------------------|
|--------7-(7)-------7-|----------------------|--------7-(7)---------|
|----------------------|----------------------|----------------------|
|-5--5-5-------5-5-5---|-7--7-7-7-7-(7)-7-7-7-|-5--5-5-------0-(0)-0-|
|----------------------|----------------------|----------------------|


  E. S E E +E  S S E E   E. S E E +E  E E E   E. S S S E +E  E E E
|----------------------|--------------------|----------------------|
|----------------------|--------------------|----------------------|
|--------4-(4)-4-2-4-4-|--------------------|----------------------|
|----------------------|--------------------|----------------------|
|-2--2-2---------------|-5--5-5-5-(5)-5-5-5-|-7--7-7-7-7-(7)-7-7-7-|
|----------------------|--------------------|----------------------|


                                            3/4
  E. S E E +E  E E E    E. S E E E E E E     S S S S +E    e S S S S
|--------------------|-------------------||--------------------------|
|--------------------|-------------------||o-------------------------|
|--------------------|-------------------||--------------------------|
|-3--3-3-3-(3)-3-3-3-|-/5--5-5-5-5-5-5-5-||--------------------------|
|--------------------|-------------------||o-0-2-4-6-(6)\--0-0-0-0---|
|--------------------|-------------------||--------------------------|


                                        |-3-|
  S S S S +E  e e S S   S S S S +E    e S S S S S
|---------------------|---------------------------|
|---------------------|---------------------------|
|---------------------|---------------------------|
|-5-4-----------------|---------------------------|
|-----2-4-(4)-0-0-0-0-|-0-2-4-6-(6)\--0-0-0-0-0---|
|---------------------|---------------------------|


 1.                                2.
                |-3-| |-3-|       5/4                       |-3-|
  S S S S +E  e S S S S S S       S S S S S S S S S E S E S S S S E.
|------------------------------||------------------------------------|
|-----------------------------o||------------------------------------|
|-----4-6-(6)------------------||-----4-6----------------------------|
|-5-7-----------------3-5-7----||-5-7-----7-5-----7---5---3-1---2----|
|-------------0-2-4-6---------o||-------------6-4---6---4-----2---1--|
|------------------------------||------------------------------------|


 4/4
  |-3-|     |-3-| |-3-|   |-3-|
  S S S e E S S S S S S e S S S e
|------------------------------------|
|------------------------------------|
|------------------------------------|
|------------------------------------|
|-0-0-0-0---0-0-0-0-0-0-0-0-0-0-0----|
|------------------------------------|


  E E E E E E E E   E E E E E E E E   E E E E S S S S S S E
|-----------------|-----------------|------------------------|
|-----------------|-----------------|------------------------|
|-----------------|-----------------|------------------------|
|-----------------|-----------------|---------3h5-5-5-3h5-5--|
|-----------------|-----------------|------------------------|
|-3-3-3-3-3-3-3-1-|-3-3-3-3-3-3-3-1-|-3-3-3-3----------------|


  E E E E S S S S S S E   E E E E E E E E   E E E E E E E E
|-----------------------|-----------------|------------------|
|-----------------------|-----------------|------------------|
|-----------------------|-----------------|------------------|
|---------3h5-5-5-3h5-5-|-----------------|------------------|
|-----------------------|-----------------|------------------|
|-3-3-3-3---------------|-3-3-3-3-3-3-3-1-|-3-3-3-3-3-3-3-1--|


                                             Q=61
  E E E E S S S S S S E   E E E E E. S +E  E   E. S Q  E. S E. S
|-----------------------|--------------------|--------------------|
|-----------------------|--------------------|--------------------|
|-----------------------|--------------------|--------------------|
|---------3h5-5-5-3h5-5-|--------------------|-2--2-2-------------|
|-----------------------|---------2--3-(3)-0-|---------3--3-3--2--|
|-3-3-3-3---------------|-3-3-3-3------------|--------------------|


  E. S Q  Q  Q    E. S Q  E. S E. S   E. S Q  Q  Q
|---------------|-------------------|---------------|
|---------------|-------------------|---------------|
|---------------|-------------------|---------------|
|---------5-----|-2--2-2------------|---------5-----|
|-0--0-0-----5--|---------3--3-3--2-|-0--0-0-----5--|
|---------------|-------------------|---------------|


  Q=110
                     3/4             4/4
  Q  Q  S S S S E E   +E  E E E E E   Q  Q  S S S S E E   +E   E E E E E Q
|-------------------|---------------|-------------------|---------------------|
|-------------------|---------------|-------------------|---------------------|
|----4--2-------2-4-|-(4)-------2-4-|----4--2-------2-4-|-(4)-/8-6---6--------|
|---------4-2-0-----|-----2-2-4-----|---------4-2-0-----|----------9---9------|
|-2-----------------|---------------|-2-----------------|----------------0----|
|-------------------|---------------|-------------------|---------------------|


                     3/4                           4/4
                                                     ~~
                               |-----6-----|
  Q  Q  S S S S E E   +E  S  S S S S  S  S S  E E    Q  q  S S S S E E
|-------------------|---------------------------9-|----------------------|
|-------------------|----------------------9-11---|-11-------------------|
|----4--2-------2-4-|-(4)-9-11-8-8-9-10-11--------|--------2-4-----2-4---|
|---------4-2-0-----|-----------------------------|------------0-2-------|
|-2-----------------|-----------------------------|-----2----------------|
|-------------------|-----------------------------|----------------------|


  +E  E Q  S S S S S E.   E. S E E +E  E E E   E. S E E +E  E S S E
|-----------------------|--------------------|-----------------------|
|-----------------------|--------------------|-----------------------|
|-(4)-2-4--7-9-9-9-7-9\-|--------------------|-----------------------|
|-----------------------|-0--0-0-0-(0)-0-0-0-|-2--2-2-2-(2)-2-2-2-2--|
|-----------------------|--------------------|-----------------------|
|-----------------------|--------------------|-----------------------|


  E. S E E +E  E +E  E   E. S S S E +E  E S S S S   E. S S S E +E  E S S E
|----------------------|--------------------------|-------------------------|
|----------------------|--------------------------|-------------------------|
|----------------------|--------------------------|-------------------------|
|-0--0-0-0-(0)---------|--------------------------|-0--0-0-0-0-(0)-0-0-0-0--|
|--------------0-(0)-0-|-2--2-2-2-2-(2)-2-2-2-2-2-|-------------------------|
|----------------------|--------------------------|-------------------------|


  E. S S S E +E  E S S E   E. S E E +E  E S S E   E. S E E +E  E S S E
|------------------------|----------------------|----------------------|
|------------------------|----------------------|----------------------|
|------------------------|----------------------|----------------------|
|-2--2-2-2-2-(2)-2-2-2-2-|-3--3-3-3-(3)-3-3-3-3-|-5--5-5-5-(5)-5-5-5-5-|
|------------------------|----------------------|----------------------|
|------------------------|----------------------|----------------------|


  E. S E E +E  E S S E   E. S E E +E  E Q     E. S E E +E  E E E
|----------------------|--------------------|----------------------|
|----------------------|--------------------|----------------------|
|----------------------|--------------------|----------------------|
|-4--4-4-4-(4)-4-4-4-4-|-2--2-2-4-(4)-4-6\--|----------------------|
|----------------------|--------------------|-4--4-4-4-(4)-4-4-4---|
|----------------------|--------------------|----------------------|


  E. S E E +E  E E E   E. S E E +E  E S S E   E. S E E E E Q
|--------------------|----------------------|--------------------|
|--------------------|----------------------|--------------------|
|--------------------|----------------------|--------------------|
|-0--0-0-0-(0)-0-0-0-|-4--4-4-4-(4)-4-4-4-4-|-2--2-2-4-4-4-6\----|
|--------------------|----------------------|--------------------|
|--------------------|----------------------|--------------------|


  E. S E E +E  E S S E   E. S E E +E  E E E   E. S E E +E  E S S E
|----------------------|--------------------|-----------------------|
|----------------------|--------------------|------------------4----|
|----------------------|--------------------|-----------------------|
|----------------------|-0--0-0-0-(0)-0-0-0-|-2--2-2-2-(2)-2-2---2--|
|-4--4-4-4-(4)-4-4-4-4-|--------------------|-----------------------|
|----------------------|--------------------|-----------------------|


  Q=115
 4/4                3/4          4/4                4/4
  Q  Q  E. S +E. S   +Q   Q  Q    Q  Q  E. S +E. S    +Q   Q  Q  Q
|------------------|------------|------------------|----------------|
|------------------|------------|------------------|----------------|
|------------------|------------|------------------|----------------|
|-3--------5-(5)-0-|-(0)-----2--|-3--------5-(5)-0-|--(0)-----2-----|
|------------------|------------|------------------|-------------2--|
|------------------|------------|------------------|----------------|


 3/4                       5/4
  S S S S S S S S S S S S   +S  S S S +S  S S S S S S S S S S S S S S S
|-------------------------|-----------------------------------------------|
|---------------4-2-------|-----------------------------------------------|
|-2-0-------2-5-----5-4-2-|-(2)-----------------------4-2-----------------|
|-----3-2-3---------------|-----5-3-2-(2)---------2-5-----5-3-2---3-------|
|-------------------------|---------------5-3-2-3---------------5---2-0---|
|-------------------------|-----------------------------------------------|


 2/4          4/4                               7/8
  +Q     Q     S S S S S S S S S S S S S S S S   S S S S S S S S S S S S S S
|------------|----------------------------------|-------------------------------|
|------------|----------------------------------|-------------------------------|
|------------|----------------------------------|-------------------------------|
|------------|-7-----6--------------------------|-------------3-3-2-2-1-0---0---|
|-(0)--/12\--|---7-0---7-0---10-9-0-8-7-0-6-5-2-|-3-3-2-2-1-1-------------------|
|------------|----------------------------------|-------------------------------|


 4/4                               7/8
  S S S S S S S S  S S S S S S S S   S S S S S S S S S S S S S
|----------------------------------|-------------------------------|
|----------------------------------|-------------------------------|
|----------------------------------|-------------------------------|
|-7-----6--------------------------|-------------3-3-2-2-1-0-0-----|
|---7-0---7-0---10-9-0-8-7-0-6-5-2-|-3-3-2-2-1-1-------------------|
|----------------------------------|-------------------------------|


                               4/4
  S S S S S S S S S S S S E     S S S S S S S S S S S S S S S S    3x
|---------------------------||-------------------------------------||
|---------------------------||o-----------------------------------o||
|---------------------------||-------------------------------------||
|-------------3-3-2-2-1-0---||-------------------------------------||
|-3-3-2-2-1-1---------------||o-4-4-4-4-4-4-4-4-4-4-4-4-4-4-4-4---o||
|---------------------------||-------------------------------------||


                  |----6----| |----6----|
  S S S S S S S S S S S S S S S S S S S S
|-----------------------------------------|
|-----------------------------------------|
|-----------------4h6-6-6-6-6-4h6-6-6-6-6-|
|-----------------------------------------|
|-4-4-4-4-4-4-4-4-------------------------|
|-----------------------------------------|


    S S S S S S S S S S S S S S S S    4x
||-------------------------------------||
||o-----------------------------------o||
||-------------------------------------||
||-------------------------------------||
||o-1-1-1-1-1-1-1-1-1-1-1-1-1-1-1-1---o||
||-------------------------------------||


    S S S S S S S S S S S S S S S S
||-----------------------------------||-|
||o---------------------------------o||-|
||-----------------------------------||-|
||--2-2-2-2-2-2-2-2-2-2-2-2-2-2-2-2--||-|
||o---------------------------------o||-|
||-----------------------------------||-|


    S S S S S S S S S S S S S S S S
||-------------------------------------||
||o-----------------------------------o||
||-------------------------------------||
||--4-4-4-4-4-4-4-4-4-4-4-4-4-4-4-4----||
||o-----------------------------------o||
||-------------------------------------||


  Q.=138
 12/8
  E E E E Q  E E E E Q    E E E Q.   E E E E Q
|-----------------------|-----------------------|
|-----------------------|-----------------------|
|-----------------------|-----------------------|
|-----------------------|-----------------------|
|-4-4-4-4----4-4-4-4----|-4-4-4------4-4-4-4----|
|-----------------------|-----------------------|



2a. Strange Deja VU

Gtr I (B E A D G C) 

  Q.=138                                           Q=118
 12/8                                               2/4
  Gtr I
  E E E E E E E E E E E E   E E E Q.   E E E E E E   S S S S S S S S
|-------------------------|------------------------|--------------------|
|-------------------------|------------------------|--------------------|
|-------------------------|------------------------|---6-------7--------|
|-------------------------|------------------------|-----5-------6------|
|-4-4-4-4-----4-4-4-4-----|-4-4-4------4-4-4-4---0-|-4-----4-5-----5----|
|-------------------------|------------------------|--------------------|


   4/4
    S S S S E S S S S E S S S S
||------------------------------|
||o-----------------------------|
||------------------------------|
||------------------------------|
||o-4-4-4-4---4-4-4-4---4-4-4---|
||------------------------------|


  E S S S S E H      S S S S E S S S S E S S S S
|------------------|-------------------------------|
|------------------|-------------------------------|
|------------------|-------------------------------|
|------------------|-------------------------------|
|---4-4-4-4--------|-4-4-4-4---4-4-4-4---4-4-4-----|
|------------------|-------------------------------|


  E S S S S S S S S S S S S S S
|-------------------------------|
|-------------------------------|
|-----------------6-------7-----|
|-------------------5-------6---|
|---4-4-4-4---0-4-----4-5-----5-|
|-------------------------------|


  S S S S E S S S S E S S S S   E S S S S E H
|-----------------------------|------------------|
|-----------------------------|------------------|
|-----------------------------|------------------|
|-----------------------------|------------------|
|-1-1-1-1---1-1-1-1---1-1-1---|---1-1-1-1--------|
|-----------------------------|------------------|


  S S S S E S S S S E S S S S   E S S S S S S S S S S S S S S
|-----------------------------|--------------------------------||
|-----------------------------|-------------------------------o||
|-----------------------------|-----------------3-------4------||
|-----------------------------|-------------------2-------3----||
|-1-1-1-1---1-1-1-1---1-1-1---|---1-1-1-1---0-1-----1-2-----2-o||
|-----------------------------|--------------------------------||


 4/4
   S S S S S S E +S  S S S E. S
|--------------------------------|
|--------------------------------|
|--------------------------6-----|
|--------------------------------|
|--4-----5---5-4-(4)-4-0-4----4--|
|----6-7-------------------------|


 3/4                       4/4
  S S E +S  S S S S S S S   S S S S S S E +S  S S S E. S
|-------------------------|------------------------------|
|-------------------------|------------------------------|
|-----4-(4)---------------|-------------------------6----|
|-----------------6-7-6-4-|------------------------------|
|---4-------4---4---------|-4-----5---5-4-(4)-4-0-4----4-|
|-------------------------|---6-7------------------------|


 3/4
  S S E +S  S S S S S S S
|----------------------------|
|----------------------------|
|-----4-(4)------------------|
|-----------------4-6-4-3----|
|---4-------4---4------------|
|----------------------------|


 4/4                            3/4
  S S S S S S E +S  S S S E. S   S S E +S  S S S S S S S
|------------------------------|-------------------------|
|------------------------------|-------------------------|
|-------------------------4----|-----2-(2)---------------|
|-------0----------------------|-----------------6-7-6-4-|
|-0-2-4-----4-2-(2)-2-0-2----2-|---2-------2---2---------|
|------------------------------|-------------------------|


 4/4
  S S S S S S E +S  S S S E. S
|-------------------------------|
|-------------------------------|
|-------------------------4-----|
|-2-0---0-----------------------|
|-----4-----4-2-(2)-2-0-2----2--|
|-------------------------------|


 6/4
  S S E +S  S S S S S S S S S S S S S E   Q
|---------------------------------------------|
|---------------------------------------------|
|-----2-(2)-------6-7-6-4---4-----------------|
|-------------------------7---6---4-4---------|
|---2-------2---2---------------7-------/14\--|
|---------------------------------------------|


 4/4
  q  q  q  q    q  q  E S S S S S S   q  q  q  q
|-------------|---------------------|-------------|
|-------------|---------------------|-------------|
|-------------|---------------------|-------------|
|-------------|---------------------|-------------|
|-4--4--4--4--|-4--4--4-2-2-4-4-2-2-|-4--4--4--4--|
|-------------|---------------------|-------------|


  q  q  E S S S S S S    Q  Q  Q  E E   Q  Q  E S S S S S S
|---------------------|---------------|----------------------|
|---------------------|---------------|----------------------|
|---------------------|---------------|----------------------|
|---------------------|-/8--8--8--8-6-|-8--8--8-6-6-8-8-6-6--|
|-4--4--4-2-2-4-4-2-2-|---------------|----------------------|
|---------------------|---------------|----------------------|


  Q  Q  Q  E E   Q  Q  E S S S S S S   S S S S S S S S S S S S S S S S
|--------------|---------------------|-----------------------------------|
|--------------|---------------------|-----------------------------------|
|--------------|---------------------|-----------------------------------|
|-8--8--8--8-6-|-8--8--8-6-6-8-8-6-6-|-----------------------------------|
|--------------|---------------------|-4-4-4-4-4-4-4-4-4-4-4-4-4-4-4-4---|
|--------------|---------------------|-----------------------------------|


  S S S S S S S S S S S S S S S S   S S S S S S S S S S S S S S S S
|---------------------------------|---------------------------------|
|---------------------------------|---------------------------------|
|---------------------------------|---------------------------------|
|---------------------------------|---------------------------------|
|-4-4-4-4-4-4-4-4-4-4-4-4-4-4-4-4-|-4-4-4-4-4-4-4-4-4-4-4-4-4-4-4-4-|
|---------------------------------|---------------------------------|


  S S S S S S S S S S S S S S S S    S S S S S S S S S S S S S S S S
|----------------------------------|---------------------------------|
|----------------------------------|---------------------------------|
|----------------------------------|---------------------------------|
|----------------------------------|---------------------------------|
|-4-4-4-4-4-4-4-4-4-4-4-4-4-4-4-4\-|-1-1-1-1-1-1-1-1-1-1-1-1-1-1-1-1-|
|----------------------------------|---------------------------------|


  S S S S S S S S S S S S S S S S   S S S S S S S S S S S S S S S S
|---------------------------------|---------------------------------|
|---------------------------------|---------------------------------|
|---------------------------------|---------------------------------|
|---------------------------------|---------------------------------|
|-1-1-1-1-1-1-1-1-1-1-1-1-1-1-1-1-|-1-1-1-1-1-1-1-1-1-1-1-1-1-1-1-1-|
|---------------------------------|---------------------------------|


  S S S S S S S S S S S S S S S S   S S S S S S S S S S S S S S S S
|---------------------------------|---------------------------------|
|---------------------------------|---------------------------------|
|---------------------------------|---------------------------------|
|---------------------------------|-2-2-2-2-2-2-2-2-2-2-2-2-2-2-2-2-|
|-1-1-1-1-1-1-1-1-1-1-1-1-1-1-1-1-|---------------------------------|
|---------------------------------|---------------------------------|


  S S S S S S S S S S S S S S S S   S S S S S S S S S S S S S S S S
|---------------------------------|---------------------------------|
|---------------------------------|---------------------------------|
|---------------------------------|---------------------------------|
|-2-2-2-2-2-2-2-2-2-2-2-2-2-2-2-2-|-4-4-4-4-4-4-4-4-4-4-4-4-4-4-4-4-|
|---------------------------------|---------------------------------|
|---------------------------------|---------------------------------|


  S S S S S S S S S S S S S S S S   S S S S S S E +S  S S S E. S
|---------------------------------|------------------------------|
|---------------------------------|------------------------------|
|---------------------------------|-------------------------6----|
|-4-4-4-4-4-4-4-4-4-4-4-4-4-4-4-4-|------------------------------|
|---------------------------------|-4-----5---5-4-(4)-4-0-4----4-|
|---------------------------------|---6-7------------------------|


 3/4
  S S E +S  S S S S S S S
|-------------------------|
|-------------------------|
|-----4-(4)---------------|
|-----------------6-7-6-4-|
|---4-------4---4---------|
|-------------------------|


 4/4                            3/4
  S S S S S S E +S  S S S E. S   S S E +S  S S S S S S S
|------------------------------|--------------------------|
|------------------------------|--------------------------|
|-------------------------6----|-----4-(4)----------------|
|------------------------------|-----------------4-6-4-3--|
|-4-----5---5-4-(4)-4-0-4----4-|---4-------4---4----------|
|---6-7------------------------|--------------------------|


 4/4                            3/4
  S S S S S S E +S  S S S E. S   S S E +S  S S S S S S S
|------------------------------|-------------------------|
|------------------------------|-------------------------|
|-------------------------4----|-----2-(2)---------------|
|-------0----------------------|-----------------6-7-6-4-|
|-0-2-4-----4-2-(2)-2-0-2----2-|---2-------2---2---------|
|------------------------------|-------------------------|


 4/4
  S S S S S S E +S  S S S E. S
|-------------------------------|
|-------------------------------|
|-------------------------4-----|
|-2-0---0-----------------------|
|-----4-----4-2-(2)-2-0-2----2--|
|-------------------------------|


  S S E +S  S S S S S S S S S S S
|---------------------------------|
|---------------------------------|
|-----2-(2)-------6-7-6-4---4-----|
|-------------------------7---6---|
|---2-------2---2---------------7-|
|---------------------------------|


  E. S +S  S E +E   S  S S  E.   E. S +S  S E +H
|------------------------------|---------------------|
|------------------------------|---------------------|
|------------------------9h11--|---------------------|
|-4--4-(4)-4-4-(4)-/9h11-------|-0--0-(0)-0-0-(0)----|
|------------------------------|---------------------|
|------------------------------|---------------------|


                               Q.=144
                                12/8
                            ~~~
  E. S +S  S E +E   S  S S  E.   Q.   Q.   Q.    Q.
|------------------------------|----------------------|
|------------------------9-----|----------------------|
|-------------------9-11---11--|----------------------|
|------------------------------|----------------/6----|
|-4--4-(4)-4-4-(4)/------------|-2----4----5----------|
|------------------------------|----------------------|


  Q=118
 4/4
                            ~~~
  E. S +S  S E +E   S  S S  E.
|---------------------------------|
|---------------------------------|
|------------------------9h11-----|
|-4--4-(4)-4-4-(4)/-9h11----------|
|---------------------------------|
|---------------------------------|


                                                  ~~~
  E. S +S  S E +H       E. S +S  S E +E   S  S S  E.
|---------------------|------------------------------|
|---------------------|------------------------9-----|
|---------------------|-------------------9-11---11--|
|-0--0-(0)-0-0-(0)----|------------------------------|
|---------------------|-4--4-(4)-4-4-(4)/------------|
|---------------------|------------------------------|


  E. S +S  S E +E  S S E S S
|-----------------------------|
|-----------------------------|
|-----------------------------|
|-----------------------------|
|-2--2-(2)-2-2-(2)-2-2-2-2-2--|
|-----------------------------|


  E. S +S  S E +E  E S S E   E. S S S E +E  E E E   E. S S S E +E  E E E
|--------------------------|----------------------|----------------------|
|--------------------------|----------------------|----------------------|
|--------------------------|----------------------|----------------------|
|-2--2-(2)-2-2-(2)-2-2-2-2-|-0--0-0-0-0-(0)-0-0-0-|-2--2-2-2-2-(2)-2-2-2-|
|--------------------------|----------------------|----------------------|
|--------------------------|----------------------|----------------------|


  E. S S S E +E  E +E  E   E. S S S E +E  S S E E   E. S S S E +E  S S E E
|------------------------|------------------------|-------------------------|
|------------------------|------------------------|----------2-(2)-----2----|
|------------------------|------------------------|-------------------------|
|-0--0-0-0-0-(0)---------|------------------------|-0--0-0-0-------0-0---0--|
|----------------0-(0)-0-|-2--2-2-2-2-(2)-2-0-2-2-|-------------------------|
|------------------------|------------------------|-------------------------|


  E. S S S E +E  E S S E   E. S E E +E  E E E   E. S E E +E  E E   S  S
|------------------------|--------------------|--------------------------|
|----------4-(4)---4-4---|--------------------|--------------------------|
|------------------------|--------------------|--------------------------|
|-2--2-2-2-------2-----2-|-3--3-3-3-(3)-3-3-3-|-5--5-5-5-(5)-5-5/--------|
|------------------------|--------------------|-------------------10h12--|
|------------------------|--------------------|--------------------------|


  Q   E  E  +E   E  +E  E   +E   E  E  E  E  E  E   S  S
|-------19-(19)-----------|-----19-----------------------|
|----19---------19-(19)---|--------19----19--------------|
|-------------------------|------------------------------|
|-------------------------|-----------19----19-19\-------|
|-0---------------------0-|-(0)--------------------10h12-|
|-------------------------|------------------------------|


                          Q=137
  Q   E  E  +E  E +E   E     +H.        +E   E
|-------19-(19)-------<2>-|-(<2>)------(<2>)----|
|----19---------------<2>-|-(<2>)------(<2>)----|
|-------------------------|---------------------|
|-------------------------|---------------------|
|-0-------------0-(0)-----|------------------0--|
|-------------------------|---------------------|


  +E   E  E S S  S  S S S  E  E    +E   E  E S S E E +E  E
|-------------------------------|--------------------------|
|-------------------------------|--------------------------|
|-------------------------------|--------------------------|
|-------------------------------|--------------------------|
|-(0)-10-12-0-0-10h12-0-0-10-12-|-(12)-10-12-0-0-3-5-(5)-0-|
|-------------------------------|--------------------------|


  +E   E  E S S  S  S S S  E  E
|---------------------------------|
|---------------------------------|
|---------------------------------|
|---------------------------------|
|-(0)-10-12-0-0-10h12-0-0-10-12---|
|---------------------------------|


   +E   E  E S S  E E +E  E   +E   E  E S S  S  S S S  E  E
|---------------------------|-------------------------------|
|---------------------------|-------------------------------|
|---------------------------|-------------------------------|
|---------------------------|-------------------------------|
|-(12)-10-12-0-0-/5-3-(3)-0-|-(0)-10-12-0-0-10-12-0-0-10-12-|
|---------------------------|-------------------------------|


   +E   E  E S S S S S S S S E
|---------------------------------|
|---------------------------------|
|---------------------------------|
|----------------------5-6-7------|
|-(12)-10-12-0-0-5-6-7-------0----|
|---------------------------------|


                                                          2/4
  +E   E  E S S  S  S S S  E  E    +E   E  E S S E E E E    E   E   E  E
|-------------------------------|------------------------|----------------|
|-------------------------------|------------------------|----------------|
|-------------------------------|------------------------|----------------|
|-------------------------------|------------------------|-<7>-<7>-<7>----|
|-(0)-10-12-0-0-10-12-0-0-10-12-|-(12)-10-12-0-0-3-4-5-0-|-------------0--|
|-------------------------------|------------------------|----------------|


 4/4
  +E   E  E S S  S  S S S  E  E    +E   E  E S S E E +E  E
|-------------------------------|--------------------------|
|-------------------------------|--------------------------|
|-------------------------------|--------------------------|
|-------------------------------|--------------------------|
|-(0)-10-12-0-0-10-12-0-0-10-12-|-(12)-10-12-0-0-3-5-(5)-0-|
|-------------------------------|--------------------------|


  +E   E  E S S  S  S S S  E  E
|----------------------------------|
|----------------------------------|
|----------------------------------|
|----------------------------------|
|-(0)-10-12-0-0-10-12-0-0-10-12----|
|----------------------------------|


   +E   E  E S S E E +E  E   +E   E  E S S  S  S S S  E  E
|--------------------------|-------------------------------|
|--------------------------|-------------------------------|
|--------------------------|-------------------------------|
|--------------------------|-------------------------------|
|-(12)-10-12-0-0-3-5-(5)-0-|-(0)-10-12-0-0-10-12-0-0-10-12-|
|--------------------------|-------------------------------|


   +E   E  E S S E E +E  E
|----------------------------|
|----------------------------|
|----------------------------|
|----------------------------|
|-(12)-10-12-0-0-3-5-(5)-0---|
|----------------------------|


  +E   E  E S S  S  S S S  E  E    +E   E  E S S E E +E   E
|-------------------------------|---------------------------|
|-------------------------------|---------------------------|
|-------------------------------|---------------------------|
|-------------------------------|---------------------------|
|-(0)-10-12-0-0-10-12-0-0-10-12-|-(12)-10-12-0-0-3-5-(5)-12-|
|-------------------------------|---------------------------|


   +E    E  E S S  S  S S S  E  E
|-----------------------------------|
|-----------------------------------|
|-----------------------------------|
|-----------------------------------|
|-(12)\-10-12-0-0-10-12-0-0-10-12---|
|-----------------------------------|


   +E   E  E S S E E +E   E    +E    E  E S S  S  S S S  E  E
|---------------------------|---------------------------------|
|---------------------------|---------------------------------|
|---------------------------|---------------------------------|
|---------------------------|---------------------------------|
|-(12)-10-12-0-0-3-5-(5)-12-|-(12)\-10-12-0-0-10-12-0-0-10-12-|
|---------------------------|---------------------------------|


   +E   E  E S S E E +E   E
|-----------------------------|
|-----------------------------|
|-----------------------------|
|-----------------------------|
|-(12)-10-12-0-0-3-5-(5)-12---|
|-----------------------------|


   +E    E  E S S  S  S S S  E  E    +E   E  E S S E E +E   E
|---------------------------------|---------------------------|
|---------------------------------|---------------------------|
|---------------------------------|---------------------------|
|---------------------------------|---------------------------|
|-(12)\-10-12-0-0-10-12-0-0-10-12-|-(12)-10-12-0-0-3-5-(5)-12-|
|---------------------------------|---------------------------|


   +E    E  E S S  S  S S S  E  E
|-----------------------------------|
|-----------------------------------|
|-----------------------------------|
|-----------------------------------|
|-(12)\-10-12-0-0-10-12-0-0-10-12---|
|-----------------------------------|


   +E   E  E S S E E E E   +E  E E E E E E E   +E  E E E E S S E E
|------------------------|-------------------|----------------------|
|------------------------|-------------------|----------------------|
|------------------------|---------------2---|----------------------|
|----------------------4-|-(4)---------2---4-|-(4)---------------4--|
|-(12)-10-12-0-0-3-4-5---|-----0-2-3-4-------|-----0-2-3-4-3-2-0----|
|------------------------|-------------------|----------------------|


  +E  E E E E E E E   +E  E E E E S S E E   +E  E E E E E E E
|-------------------|---------------------|--------------------|
|-------------------|---------------------|--------------------|
|---------------2---|-----------2---------|---------------2----|
|-(4)---------2---4-|-(4)---------4-2---4-|-(4)---------2---4--|
|-----0-2-3-4-------|-----0-2-3-------4---|-----0-2-3-4--------|
|-------------------|---------------------|--------------------|


                                           7/8
  +E  E E E E S S E E   +E  E E E E E E E   +E  E E E E S S E
|---------------------|-------------------|--------------------|
|---------------------|-------------------|--------------------|
|---------------------|---------------2---|-----------4--------|
|-(4)---------------4-|-(4)---------2---4-|-(4)---------6-4----|
|-----0-2-3-4-3-2-0---|-----0-2-3-4-------|-----0-2-3-------7--|
|---------------------|-------------------|--------------------|


 4/4                7/8                    4/4
  Q  E E E S S E E   +E  E  E E +E  E S S   Q  E E E S S E E
|------------------|----------------------|---------------------|
|------------------|----------------------|---------------------|
|----4-6---4h6-----|----------------------|----4-6---4h6--------|
|------------------|-----4-/6-4-(4)-------|---------------------|
|-4------4-----4-7-|-(7)------------7-2-3-|-4------4-----4-7----|
|------------------|----------------------|---------------------|


                                           7/8
  +E  E  E E +E  E E E   Q  E E E S S E E   +E  E  E E +E  E S S
|----------------------|------------------|-------------------------|
|----------------------|------------------|-------------------------|
|----------------------|----4-6---4h6-----|-------------------------|
|-----4-/6-4-(4)-------|------------------|-----4-/6-4-(4)----------|
|-(7)------------7-2-3-|-4------4-----4-7-|-(7)------------7-2-3----|
|----------------------|------------------|-------------------------|


                                         Q=118
 4/4
  Q  E E E S S E E   +E  E E E +E  E E E     W         W
|------------------|---------------------|--------|---------|
|------------------|---------------------|--------|---------|
|----4-6---4h6-----|---------------------|--------|---------|
|------------------|-----4-6-----------2-|---4----|---------|
|-4------4-----4-7-|-(7)-----2-(2)-3-4---|--------|----5----|
|------------------|---------------------|--------|---------|


                                    ~~
  W         E. S +S  S E +E   S S S E.      E. S +S  S E  +H
|-------|-------------------------------|------------------------|
|-------|-------------------------------|------------------------|
|-------|-------------------------------|------------------------|
|-------|-------------------------7h9---|---5--5-(5)-5-5--(5)----|
|-4-----|---2--2-(2)-2-2-(2)-/7h9-------|------------------------|
|-------|-------------------------------|------------------------|


                             Q.=144                Q
                              12/8
                          ~~
  E. S +S  S E +E   S S S E.   Q.   Q.   Q.   Q.
|----------------------------|---------------------|
|----------------------------|---------------------|
|-----------------------7----|---------------------|
|-4--4-(4)-4-4-(4)-/7h9---9--|-2----4----5---------|
|----------------------------|----------------4----|
|----------------------------|---------------------|


 =118
 4/4
                          ~~
  E. S +S  S E +E   S S S E.
|-------------------------------|
|-------------------------------|
|-------------------------------|
|-----------------------7h9-----|
|-2--2-(2)-2-2-(2)-/7h9---------|
|-------------------------------|


                         |-3--|
  E. S +S  S   E  +E   E S  S S  E
|----------------------------------|
|----------------------------------|
|------------/12-(12)-11-9h11p9\-7-|
|-5--5-(5)-5-----------------------|
|----------------------------------|
|----------------------------------|


                          ~~
  E. S +S  S E +E   S S S E.    E. S E E +E  E Q
|----------------------------|-----------------------|
|----------------------------|-----------------------|
|-----------------------7----|-----------------------|
|-4--4-(4)-4-4-(4)-/7h9---9--|-----------------------|
|----------------------------|--7--7-7-7-(7)-7-7\----|
|----------------------------|-----------------------|


  E. S E E +E  E E S S   E. S S S E +E  E E S S   E. S S S E +E  E S S E
|----------------------|------------------------|--------------------------|
|----------------------|------------------------|--------------------------|
|----------------------|------------------------|--------------------------|
|----------------------|-0--0-0-0-0-(0)-0-0-0-0-|-2--2-2-2-2-(2)-2-2-2-2---|
|-0--0-0-0-(0)-0-0-0-0-|------------------------|--------------------------|
|----------------------|------------------------|--------------------------|


  E. S S S E +E  E +E  E   E. S E  E +E  E S S E   E. S S S E +E  S S S S E
|------------------------|-----------------------|-----------------------------|
|------------------------|-----------------------|-----------------------------|
|------------------------|-----------------------|----------7-(7)--------------|
|-0--0-0-0-0-(0)---------|--------/9-(9)-9-7h9-9-|-0--0-0-0-------0-0-0-0-0----|
|----------------0-(0)-0-|-2--2-2----------------|-----------------------------|
|------------------------|-----------------------|-----------------------------|


  E. S S S E +E  S S S S E   E. S S S E +E  S S S S E
|--------------------------|--------------------------|
|--------------------------|--------------------------|
|--------------------------|--------------------------|
|-2--2-2-2-2-(2)-2-2-2-2-2-|-3--3-3-3-3-(3)-3-3-3-3-3-|
|--------------------------|--------------------------|
|--------------------------|--------------------------|


  E. S S S E +E  S S S S E
|----------------------------|
|----------------------------|
|----------------------------|
|-5--5-5-5-5-(5)-5-5-5-5-5---|
|----------------------------|
|----------------------------|


  E. S S S E +E  S S S S E   E. S E E +E  S S E E
|--------------------------|----------------------|
|--------------------------|------------------4---|
|----------7-(7)-----7-7---|----------------------|
|-0--0-0-0-------0-0-----0-|-2--2-2-2-(2)-2-2---2-|
|--------------------------|----------------------|
|--------------------------|----------------------|


  E. S S S E +E  E +E  E   E. S E  E +E  E S S E
|------------------------|--------------------------|
|------------------------|--------------------------|
|------------------------|--------------------------|
|-0--0-0-0-0-(0)---------|--------/9-(9)-9-7h9-9----|
|----------------0-(0)-0-|-2--2-2-------------------|
|------------------------|--------------------------|


  E. S S S E +E  S S S S E   E. S E E +E  S S E E
|--------------------------|----------------------|
|--------------------------|------------------4---|
|----------7-(7)-----7-7---|----------------------|
|-0--0-0-0-------0-0-----0-|-2--2-2-2-(2)-2-2---2-|
|--------------------------|----------------------|
|--------------------------|----------------------|


  H.=H
  E. S E E +E  E E E   E. S E E +E  E E E
|--------------------|----------------------|
|--------------------|----------------------|
|--------------------|----------------------|
|-3--3-3-3-(3)-3-3-3-|-3--3-3-3-(3)-3-3-3---|
|--------------------|----------------------|
|--------------------|----------------------|


              rit..........................
  E. S E E +E  E E E        W              W
|--------------------|-------------|------------*|
|--------------------|-------------|------------*|
|--------------------|-------------|------------*|
|-5--5-5-5-(5)-5-5-5-|-------------|------------*|
|--------------------|------2------|-------3----*|
|--------------------|-------------|------------*|



3. Through My Words
(no bass)


3a. Fatal Tragedy

Gtr I (B E A D G C)

                Q=142
 4/4
                Gtr I
  Wx16          W          +W           W           W
|-------------|----------|------------|----------|--------|
|-------------|----------|------------|----------|--------|
|-------------|----------|------------|----------|--------|
|-------------|----------|------------|----------|--------|
|-------------|-0--------|-(0)--------|-0--------|-12\----|
|-------------|----------|------------|----------|--------|


  H.      Q    H.      E +E      W          E E Q  E E Q    Q  E E Q  Q
|------------|-----------------|----------|---------------|----------------|
|------------|-----------------|----------|---------------|----------------|
|------------|-----------------|----------|---------------|----------------|
|-2-------2--|-0---------------|----------|---------------|-----------2----|
|------------|---------3-(3)b5-|-3--------|-0-2-3--0------|----0-2-3-------|
|------------|-----------------|----------|---------------|----------------|


  W          +E  E E E E E Q     E E Q  E E Q    Q  E E Q  Q
|----------|-------------------|---------------|----------------|
|----------|-------------------|---------------|----------------|
|----------|---------2-5-------|---------------|----------------|
|-1--------|-(1)-1-4-----4-----|---------------|-----------2----|
|----------|---------------3\--|-0-2-3--0------|----0-2-3-------|
|----------|-------------------|---------------|----------------|


                                            6/4
                           ~
  W          +E  E E E E E Q    H.      Q    H.      E +E    H
|----------|------------------|------------|----------------------|
|----------|------------------|------------|----------------------|
|----------|---------5-8------|------------|----------------------|
|-4--------|-(4)-4-7-----7----|-2-------2--|-0--------------------|
|----------|---------------6--|------------|---------3-(3)b5-3----|
|----------|------------------|------------|----------------------|


 4/4
  E E Q  E E Q    Q  E E Q  Q    W             +E  E E E E E Q
|---------------|--------------|-------------|--------------------|
|---------------|--------------|-------------|--------------------|
|---------------|--------------|-------------|---------2-5--------|
|---------------|-----------2--|-1tr2--------|-(1)-1-4-----4------|
|-0-2-3--0------|----0-2-3-----|-------------|---------------3----|
|---------------|--------------|-------------|--------------------|


  E E Q  E E Q    Q  E E Q  Q    W             +E  E E E E E Q
|---------------|--------------|-------------|--------------------|
|---------------|--------------|-------------|--------------------|
|---------------|--------------|-------------|---------5-8--------|
|---------------|-----------2--|-4tr5--------|-(4)-4-7-----7------| 
|-0-2-3--0------|----0-2-3-----|-------------|---------------6----|
|---------------|--------------|-------------|--------------------|


  H.      Q    H.      E +E      H.      E E   W
|------------|-----------------|-------------|------|
|------------|-----------------|-------------|------|
|------------|-----------------|-------------|------|
|-2-------2--|-0---------------|-------------|------|
|------------|---------3-(3)b5-|-3-------2-3-|-0----|
|------------|-----------------|-------------|------|


                           |--3--|
  H.      +E  E   Q    Q   E  E  E  Q     Q  +E  E Q  Q
|---------------|-----------------------|------------------|
|---------------|-----------------------|------------------|
|---------------|-9--/13--11h13p11--9\--|----------4-------|
|-2-------(2)S9-|-----------------------|------------------|
|---------------|-----------------------|-2--(2)-2----2----|
|---------------|-----------------------|------------------|


  +Q   E E  E E Q     W          +W           W          +Q    H.
|-------------------|----------|------------|----------|-------------|
|-------------------|----------|------------|----------|-------------|
|------4-4-/4-2-4\--|----------|------------|----------|-------------|
|-------------------|----------|------------|----------|-------------|
|-(2)---------------|-0--------|-(0)--------|-0--------|-(0)--12\----|
|-------------------|----------|------------|----------|-------------|


  E E E E E E E E   E E E E  E  E  E  E
|-----------------|---------------------|
|-----------------|---------------------|
|-----------------|---------------------|
|-----------------|---------------------|
|-0-0-0-0-0-0-0-0-|-0-0-0-0-12-12-12-12-|
|-----------------|---------------------|


  E E E E E E E E    E  E  E  E  Q   E E
|-----------------|------------------------|
|-----------------|------------------------|
|-----------------|------------------------|
|-----------------|------------------------|
|-0-0-0-0-0-0-0-0-|-12-12-12-12-12\--0-1---|
|-----------------|------------------------|


  H.      E E   H.      E E   H.      +E  E   H.      E E   H.      +E  E
|-------------|-------------|---------------|-------------|------------------|
|-------------|-------------|---------------|-------------|------------------|
|-------------|-------------|---------------|-------------|------------------|
|-------------|-----------2-|-4-------(4)---|-------------|------------------|
|-2-------2-4-|-5-------5---|-------------0-|-4-------4-5-|-7-------(7)-7----|
|-------------|-------------|---------------|-------------|------------------|


                    3/4
  Q  +E  E E E E E   Q  Q  E E   Q  Q  E E
|------------------|-----------|------------|
|------------------|-----------|------------|
|------------------|-----------|------------|
|--------4-2-4-----|-----------|---------2--|
|-7--(7)-------4-0-|-2--2--2-4-|-5--5--5----|
|------------------|-----------|------------|


  Q  Q  +E  E   Q.   E +E  E   Q  +E    E  +Q
|-------------|--------------|------------------|
|-------------|--------------|------------------|
|-------------|--------------|------------------|
|-4--4--(4)---|--------------|--------/12-(12)--|
|-----------0-|-4----4-(4)-4-|-5--(5)-----------|
|-------------|--------------|------------------|


   E.  S  +E   E  +S   E.    H.
|-------------------------|--------|
|-------------------------|--------|
|-14--13-(13)-------------|--------|
|-------------14-(14)-11--|--------|
|-------------------------|-14-----|
|-------------------------|--------|


   7/8            2/4    7/8             2/4
    E E E Q  E E   H      E E E Q   E E   H
||---------------|------|---------------|-------||
||o--------------|------|---------------|------o||
||---------------|------|-------------9-|-------||
||-----------6-9-|------|-6-7-9-7--10---|-------||
||o-5-7-8-7------|------|---------------|------o||
||---------------|------|---------------|-------||


 9/8
  S S S S E S S S S E S S S S S S
|---------------------------------|
|---------------------------------|
|-7-7-------5-5-2-----------------|
|-----7-----------2---------2-----|
|-------8-5---------3-2-3-5---2-3-|
|---------------------------------|


   4/4
    S S E E E E S S E E   Q  S S E S S E S S E   6x
||----------------------|------------------------||
||o---------------------|-----------------------o||
||----------------------|------------------------||
||----------------------|------------------------||
||o-0-0-0-0-----0-0-0-0-|----0-0-0-0-0-0-0-0-0--o||
||----------------------|------------------------||


    S S E  Q.   S S E E   Q  S S E S S E S S E   4x
||----------------------|------------------------||
||o---------------------|-----------------------o||
||----------------------|------------------------||
||----------------------|------------------------||
||o-0-0-0-12\---0-0-0-0-|----0-0-0-0-0-0-0-0-0--o||
||----------------------|------------------------||


  E E E E E E E E    E E E E E E E E
|-----------------|------------------|
|-----------------|------------------|
|---------1---2-4-|----2-1-----------|
|-2-3-0-2---2-----|--2-----2-3-2-0-2-|
|-----------------|------------------|
|-----------------|------------------|


  E E E E E SS E E   SS E E E E E E E
|------------------|--------------------|
|--------------0-2-|--------------------|
|---------1--------|----2-1-------------|
|-0-3-0-2---22-----|-22-----2-3-2-0-2---|
|------------------|--------------------|
|------------------|--------------------|


  E E E E E SS E E   SS E E E E E E E   E E E E E E SS E
|------------------|------------------|-------------------|
|--------------2-4-|------------------|-------------------|
|---------1--------|----2-1-----------|-------------14-2--|
|---3-0-2---22-----|-22-----2-3-2-0-2-|-------0-1-2-------|
|-3----------------|------------------|-0-2-3-------------|
|------------------|------------------|-------------------|


  +S  S S S S S S S S S S S S S S S   E S S E S S E S S E E
|-----------------------------------|------------------------|
|-----------------------------------|-4-----4-----2-----0----|
|-(2)---2-1-0-2-------2-------------|---------------------4--|
|---------------4-3-2---0-1-0-------|---2-2---2-2---2-2------|
|-----0-----------------------3-2-3-|------------------------|
|-----------------------------------|------------------------|


              |-3-|
  S S E E E E S S S E E   E E E E E E E E   E E E E E E E E
|-----4-3---------------|-----------------|------------------|
|---------4-5-4h5p4-2-0-|---1-2-----------|------------------|
|-----------------------|-4---------------|------------------|
|-2-2-------------------|-------4-3---2-0-|-------4-3-2------|
|-----------------------|-----------2-----|-2-0-2-------2-3--|
|-----------------------|-----------------|------------------|


  W          +W           W          +W
|----------|------------|----------|------------|
|----------|------------|----------|------------|
|----------|------------|----------|------------|
|----------|------------|----------|------------|
|-0--------|-(0)--------|-0--------|-(0)--------|
|----------|------------|----------|------------|


  E E E E H      S S E E E Q  S S E
|--------------|-----------------------|
|--------------|-----------------------|
|--------------|-----------------------|
|---------7----|-----------7-----------|
|-0-0-0-0------|-0-0-0-0-0----0-0-0----|
|--------------|-----------------------|


  Q S S E H      S S E E E Q  S S E   H.      E E   Q    H    E E
|--------------|--------------------|-------------|-----------------|
|--------------|--------------------|-------------|-----------------|
|--------------|--------------------|-------------|-----------------|
|-7-------7----|-----------7--------|-------------|-0--/12----0-2---|
|---0-0-0------|-0-0-0-0-0----0-0-1-|-2-------2-4-|-----------------|
|--------------|--------------------|-------------|-----------------|


  Q  E E +E  E E E   Q  E E +E  E E E   Q  E E +E  E  E E   Q.   E E E E E
|------------------|------------------|-------------------|------------------|
|------------------|------------------|-------------------|------------------|
|------------------|------------------|--------------/9-9-|-9\---------------|
|-4--4-4-(4)-4-4---|------------------|-2--2-2-(2)-2------|------4-2-4-------|
|----------------0-|-4--4-4-(4)-4-4-5-|-------------------|------------4-0---|
|------------------|------------------|-------------------|------------------|


 6/8
  E E E E E E   E E E E E E   E E E E E E   E E E E E E   E E E E E E
|-------------|-------------|-------------|-------------|---------------|
|-------------|-------------|-------------|-------------|---------------|
|-------------|-------------|-------------|-------------|---------------|
|-------------|-0-0-0-0-0-2-|-4-4-4-4-4---|-------------|---------------|
|-2-2-2-2-2-4-|-------------|-----------0-|-4-4-4-4-4-4-|-5-5-5-5-5-5---|
|-------------|-------------|-------------|-------------|---------------|


             4/4
  Q.   Q.     H     H          +H         H       E E H.        +W
|-----------|----------------|------------------|-------------|--------|
|-----------|----------------|------------------|-------------|--------|
|-----------|------/9tr11----|-(9tr11)----9\----|-------------|--------|
|-4---------|-2--------------|------------------|-------------|--------|
|------4----|----------------|------------------|-0-2-3-------|-(3)----|
|-----------|----------------|------------------|-------------|--------|


  Wx3          S S S S +S  S S S +S  S S S +S  S E
|------------|-------------------------------------|
|------------|-------------------------------------|
|------------|-------------------------------------|
|------------|-------5-(5)-----4-(4)-----3-(3)---2-|
|------------|-0-2-3-------0h3-------0h3-------0---|
|------------|-------------------------------------|


    S S S S +S  E S S S S S +S  E S
||------------------------------------|
||o-----------------------------------|
||------------------------------------|
||------------------------------------|
||o-0-2-3-0-(0)-0-0-0-2-3-0-(0)-0-0---|
||------------------------------------|


  S S S S +S  E S S S S S +S  E S   S S S S +S  E S S S S S +S  E S
|---------------------------------|----------------------------------|
|---------------------------------|----------------------------------|
|---------------------------------|----------------------------------|
|---------------------------------|----------------------------------|
|-0-2-3-0-(0)-0-0-0-2-3-0-(0)-0-0-|-0-2-3-0-(0)-0-0-0-2-3-0-(0)-0-0--|
|---------------------------------|----------------------------------|


                                         
  S S S S +S  S S S +S  S S S +S  S E
|--------------------------------------||-|
|-------------------------------------o||-|
|--------------------------------------||-|
|-------5-(5)-----4-(4)-----3-(3)---2--||-|
|-0-2-3-------0h3-------0h3-------3---o||-|
|--------------------------------------||-|


 4
    S S S S +S  S S S E S S S E S S S E S S E     4x
||------------------------------------------------||
||o----------------------------------------------o||
||------------------------------------------------||
||--7-7-7-7-(7)-7-7-7-7-7-7-7-7-7-7-7-7-7-7-7-----||
||o----------------------------------------------o||
||------------------------------------------------||


    S S S S S S S S S S S S S S S S S S S S S S S S  4x
||---------------------------------------------------||
||o-------------------------------------------------o||
||---------------------------------------------------||
||---------------------------------------------------||
||o-0-0-0-0---0-0-0-0---0-0-0-0---0-0-0-0---0-0-0---o||
||---------------------------------------------------||


 4/4
      S E. E S E S E Q     4x
|-||-----------------------||
|-||o---------------------o||
|-||-----------------------||
|-||-----------------------||
|-||o-2-2----2-2-2-2------o||
|-||-----------------------||


    S S S S +S  E S S S S S +S  E S  3x
||-----------------------------------||
||o---------------------------------o||
||-----------------------------------||
||-----------------------------------||
||o-0-2-3-0-(0)-0-0-0-2-3-0-(0)-0-0-o||
||-----------------------------------||


  S S S S +S  S S S +S  S S S +S  S E     S E. E S E S E Q     4x
|-------------------------------------||-----------------------||
|-------------------------------------||o---------------------o||
|-------------------------------------||-----------------------||
|-------5-(5)-----4-(4)-----3-(3)---2-||-----------------------||
|-0-2-3-------0-3-------0-3-------0---||o-2-2----2-2-2-2------o||
|-------------------------------------||-----------------------||


    S S S S +S  E S S S S S +S  E S
||-----------------------------------||
||o---------------------------------o||
||-----------------------------------||
||-----------------------------------||
||o-0-2-3-0-(0)-0-0-0-2-3-0-(0)-0-0-o||
||-----------------------------------||


  S S S S +S  S S S +S  S S S +S  S E     S E. E S E S E Q     3x
|-------------------------------------||-----------------------||
|-------------------------------------||o---------------------o||
|-------------------------------------||-----------------------||
|-------5-(5)-----4-(4)-----3-(3)---2-||-----------------------||
|-0-2-3-------0-3-------0-3-------0---||o-2-2----2-2-2-2------o||
|-------------------------------------||-----------------------||


  S S S S +S  E S S S S S +S  E S
|---------------------------------|
|---------------------------------|
|---------------------------------|
|---------------------------------|
|-0-2-3-0-(0)-0-0-0-2-3-0-(0)-0-0-|
|---------------------------------|


  S S S S +S  S S S +S  S S S +S  S E     S E. E S E S E Q
|-------------------------------------||-----------------------||
|-------------------------------------||o---------------------o||
|-------------------------------------||-----------------------||
|-------5-(5)-----4-(4)-----3-(3)---2-||-----------------------||
|-0-2-3-------0-3-------0-3-------0---||o-2-2----2-2-2-2------o||
|-------------------------------------||-----------------------||


  S S S S +S  S S S +S  S S S +S  S E
|-------------------------------------|
|-------------------------------------|
|-------------------------------------|
|-------5-(5)-----4-(4)-----3-(3)---2-|
|-0-2-3-------0-3-------0-3-------0---|
|-------------------------------------|


  S E. E S E S E Q    E E S S S S +S  S E E S S
|-------------------|------------------------------|
|-------------------|------------------------------|
|-------------------|-----9-9-7-9-(9)-9-7-9--------|
|-------------------|-----------------------9-9----|
|-2-2----2-2-2-2----|-7-7--------------------------|
|-------------------|------------------------------|


                   ~~
  E E E S  S +S  S Q.     E E S S S S +S  S E E S S
|-----------------------|---------------------------|
|-----------------------|---------------------------|
|-------7-/9-(9)---7----|-----9-9-7-9-(9)-9-7-9-----|
|-----------------------|-----------------------9-9-|
|-7-7-7-----------------|-7-7-----------------------|
|-----------------------|---------------------------|


  E E E S S S S S S S S S S
|-----------------------------|
|-------9---8---8---7---6-----|
|---------9---8---8---7---6---|
|-----------------------------|
|-7-7-7-----------------------|
|-----------------------------|


  S S S S +S  S S S +S  S S S +S  S E   S E. E S E S E Q
|-------------------------------------|-------------------|
|-------------------------------------|-------------------|
|-------------------------------------|-------------------|
|-------5-(5)-----4-(4)-----3-(3)---2-|-------------------|
|-0-2-3-------0h3-------0h3-------3---|-2-2----2-2-2-2----|
|-------------------------------------|-------------------|


    S S S S +S  E S S S S S +S  E S
|--------------------------------------|
|--------------------------------------|
|--------------------------------------|
|--------------------------------------|
|--0-2-3-0-(0)-0-0-0-2-3-0-(0)-0-0-----|
|--------------------------------------|


  S S S S +S  S S S +S  S S S +S  S E
|-------------------------------------|
|-------------------------------------|
|-------------------------------------|
|-------5-(5)-----4-(4)-----3-(3)---2-|
|-0-2-3-------0h3-------0h3-------3---|
|-------------------------------------|


    S E. E S E S E Q      S S S S +S  E S S S S S +S  E S
||---------------------||-------------------------------------||
||o-------------------o||o-----------------------------------o||
||---------------------||-------------------------------------||
||---------------------||-------------------------------------||
||o-2-2----2-2-2-2----o||o-0-2-3-0-(0)-0-0-0-2-3-0-(0)-0-0---o||
||---------------------||-------------------------------------||


  S S S S +S  S S S +S  S S S +S  S E     S E. E S E S E Q   3x
|-------------------------------------||---------------------||
|-------------------------------------||o-------------------o||
|-------------------------------------||---------------------||
|-------5-(5)-----4-(4)-----3-(3)---2-||---------------------||
|-0-2-3-------0h3-------0h3-------3---||o-2-2----2-2-2-2----o||
|-------------------------------------||---------------------||


      S S S S +S  E S S S S S +S  E S     3x
|-||--------------------------------------||
|-||o------------------------------------o||
|-||--------------------------------------||
|-||--------------------------------------||
|-||o-0-2-3-0-(0)-0-0-0-2-3-0-(0)-0-0----o||
|-||--------------------------------------||


  S S S S +S  S S S +S  S S S +S  S E
|-------------------------------------|
|-------------------------------------|
|-------------------------------------|
|-------5-(5)-----4-(4)-----3-(3)---2-|
|-0-2-3-------0h3-------0h3-------0---|
|-------------------------------------|


    S E. E S E S E Q   4x E. S S S E +S  S S S S S  S S
||---------------------||---------------------------------|
||o-------------------o||---------------------------------|
||---------------------||----------9-(9)-------7-9----7---|
||---------------------||--------------------------10-----|
||o-2-2----2-2-2-2----o||-7--7-7-7-------7-7-7------------|
||---------------------||---------------------------------|


  E. S S S E +S  S S S  S S S  S
|--------------------------------|
|--------------------------------|
|----------7-(7)----------7------|
|----------------------10---9-10-|
|-7--7-7-7-------7-7-7-----------|
|--------------------------------|


                                       2/4
  S S S S S S S  S S  S S S  S S S  S   q  Q
|-------------------------------------|--------|
|-------------------------------------|--------|
|-------------7-10-9-10-7-9----7------|--------|
|-7-6-----6-9---------------10---9-10-|-7------|
|-----8-7-----------------------------|--------|
|-------------------------------------|--------|


 4/4
  S S S S S S S S S S S S S S S S    S S S S S S S S S S S S S S S S
|---------------------------------|-------------------------------------|
|---------------------------------|-------------------------------------|
|---------------------------------|-/9-9-9-9-9-9-9-9-9-9-9-9-9-9-9-9----|
|-2-2-2-2-2-2-2-2-2-2-2-2-2-2-2-2-|-------------------------------------|
|---------------------------------|-------------------------------------|
|---------------------------------|-------------------------------------|


  S S S S S S S S S S S S S S S S    S S S S S S S S S S S S S S S S
|---------------------------------|------------------------------------|
|---------------------------------|------------------------------------|
|---------------------------------|-/7-7-7-7-7-7-7-7-7-7-7-7-7-7-7-7---|
|-0-0-0-0-0-0-0-0-0-0-0-0-0-0-0-0-|------------------------------------|
|---------------------------------|------------------------------------|
|---------------------------------|------------------------------------|


  S S S S S S S S S S S S S S S S   S S S S S S S S S S S S S S S S
|---------------------------------|-----------------------------------|
|---------------------------------|-----------------------------------|
|---------------------------------|-------7-----------5-----5---------|
|---------------------------------|-7-5-7---7-5-7-5-7---7-5---7-5-----|
|-0-0-0-0-0-0-0-0-0-0-0-0-0-0-0-0-|-------------------------------7---|
|---------------------------------|-----------------------------------|


  S S S S S S S S S S S S S S S S   S S S S S S S S S S S S S S S S
|---------------------------------|-----------------------------------|
|---------------------------------|-----------------------------------|
|---------------------------------|-------7-----------5-----7-5-------|
|---------------------------------|-7-5-7---7-5-7-5-7---7-5-----7-5---|
|-0-0-0-0-0-0-0-0-0-0-0-0-0-0-0-0-|-----------------------------------|
|---------------------------------|-----------------------------------|


  S S S S S S S S S S S S S S S S    S S S S S S S S S S S S S S S S
|---------------------------------|------------------------------------|
|---------------------------------|------------------------------------|
|---------------------------------|-/9-9-9-9-9-9-9-9-9-9-9-9-9-9-9-9---|
|-2-2-2-2-2-2-2-2-2-2-2-2-2-2-2-2-|------------------------------------|
|---------------------------------|------------------------------------|
|---------------------------------|------------------------------------|


  S S S S S S S S S S S S S S S S   S S S S S S S S S S S S S S S S
|---------------------------------|-----------------------------------|
|---------------------------------|-----------------------------------|
|---------------------------------|-7-7-7-5-5-5-7-7-7-5-5-5-7-7-5-5---|
|-0-0-0-0-0-0-0-0-0-0-0-0-0-0-0-0-|-----------------------------------|
|---------------------------------|-----------------------------------|
|---------------------------------|-----------------------------------|


  S S S S S S S S S S S S S S S S   S S S S S S S S S S S S S S S S
|---------------------------------|-----------------------------------|
|---------------------------------|-----------------------------------|
|-------------7-----5-------5-----|-------------5-----5---------------|
|-------7-5-7---7-5---7-5-7---7-5-|-------7-5-7---7-5---7-5-7-5-------|
|-0-0-0---------------------------|-0-0-0-----------------------7-5---|
|---------------------------------|-----------------------------------|


  S S S S S S S S S S S S S S S S   S S S S S S S S S S S S S S E
|---------------------------------|---------------------------7----|
|---------------------------------|-----------------------7-9---9--|
|-------------7-----7-5---7-7-5---|-------------7-5---7-9----------|
|-------7-5-7---7-5-----5-------7-|-------7-5-7-----7--------------|
|-0-0-0---------------------------|-0-0-0--------------------------|
|---------------------------------|--------------------------------|


  S  S  S S  S  S S  S  S S  E  S  S S  S
|-------------------------9---------------|
|---------9-------9-11-12---11-12-11-9----|
|-9-10-12---10-12----------------------12-|
|-----------------------------------------|
|-----------------------------------------|
|-----------------------------------------|


   S S  S  S S  S  S S  S  S  S  S  S  S S  S
|----------------------------------------------|
|------------9---------------------------------|
|-10-9-10-12---12-10-9----------10-12-10-9-----|
|----------------------12-10-12------------12--|
|----------------------------------------------|
|----------------------------------------------|


   S  S  S S  S S  S  S S  S  S S  S S  S  S
|--------------------------------------------|
|--------------------------------------------|
|----------9-10-9---------------9-10-9-------|
|-12-10-12--------12-10-9-10-12--------12-10-|
|--------------------------------------------|
|--------------------------------------------|


   S S  S  S S  S  S S  S  S S  S  S S  E
|------------------------------------------|
|------------------------------------------|
|--------------------9-10------------9-----|
|----9-10----9-10-12------12-9-10-12---12--|
|-12------12-------------------------------|
|------------------------------------------|


  S S S  S  S  S  S  S  S  S  S  S  S  S  S  S
|----------------------------------------------|
|----------------------------------12-12-------|
|-------14-14-14-12-12-12-14-14-14-------14-14-|
|----------------------------------------------|
|-0-0-0----------------------------------------|
|----------------------------------------------|


  S S S  S  S  S  S  S  S  S  S  S  S  S  S  S
|------------------------------------------------|
|----------------------------------12-12---------|
|-------14-14-14-12-12-12-14-14-14-------14-14---|
|------------------------------------------------|
|-0-0-0------------------------------------------|
|------------------------------------------------|


  S S S  S  S  S  S  S  S  S  S  S  S  S  S  S   E E Q  Q  Q
|----------------------------------------------|--------------|
|----------------------------------12-12-------|--------------|
|-------14-14-14-12-12-12-14-14-14-------14-14-|--------------|
|----------------------------------------------|--------------|
|-0-0-0----------------------------------------|-0-2-3--0-----|
|----------------------------------------------|--------------|


4. Beyond This Life

Gtr I (B E A D G C) 

  Q=172
 5/4
  Wx4
|--------|
|--------|
|--------|
|--------|
|--------|


   5/4
    Gtr I
    E E E E E E E E E E   E E E E E E E E E E   E E E E E E E E E E
||----------------------|---------------------|----------------------|
||o---------------------|---------------------|----------------------|
||----------------------|---------------------|----------------------|
||--------2-2-2---------|-------2-2-2---------|-------2-2-2----------|
||o-4-4-4-------3-3-2-2-|-4-4-4-------3-3-2-2-|-4-4-4-------3-3-2-2--|
||----------------------|---------------------|----------------------|


                             4/4               7/8
  E E E E E E E E E E         E E E E E E E E   E E E E E E E  3x
|----------------------||-||------------------|----------------||
|---------------------o||-||o-----------------|---------------o||
|----------------------||-||--------1-------0-|----------------||
|-3-3-3-2-2-2-1-1-0-0--||-||------------------|-------3-2------||
|---------------------o||-||o-4-2-4---4-2-4---|-4-2-4-----4-2-o||
|----------------------||-||------------------|----------------||


 6/4                       4/4                   5/4
  E E E E E E E E E E E E   E E E S S E E E E     E E E E E E E E E E
|-------------------------|-------------------||-----------------------|
|-------------------------|-----1-------------||o----------------------|
|-------1-------3-------4-|-3-4---4-3-0-3-----||-----------------------|
|-----------------2-1-2---|---------------2-1-||--------2-2-2----------|
|-4-2-4---4-2-4-----------|-------------------||o-4-4-4-------3-3-2-2--|
|-------------------------|-------------------||-----------------------|


  E E E E E E E E E E   E E E E E E E E E E   E E E E E E E E E E
|---------------------|---------------------|----------------------||
|---------------------|---------------------|---------------------o||
|---------------------|---------------------|----------------------||
|-------2-2-2---------|-------2-2-2---------|-3-3-3-2-2-2-1-1-0-0--||
|-4-4-4-------3-3-2-2-|-4-4-4-------3-3-2-2-|---------------------o||
|---------------------|---------------------|----------------------||


    Q.   Q.   Q  Q   7x Q.   Q.   Q  Q      Q.   Q.   Q  Q   7x
||-------------------||-----------------||-------------------||
||o-----------------o||-----------------||o-----------------o||
||-------------------||-----------------||-------------------||
||-------2-----------||-3----2----1--0--||-------2-----------||
||o-4---------3--2--o||-----------------||o-4---------3--2--o||
||-------------------||-----------------||-------------------||


  E E E E E E E E E E   E E E E E E E E E E   E E E E E E E E Q
|---------------------|---------------------|--------------------|
|---------------------|---------------------|--------------------|
|---------------------|---------------------|--------------------|
|-3-3-3-2-2-2-1-1-0-0-|-4-4-4-4-4-4-4-4-4-4-|--------------------|
|---------------------|---------------------|-0-0-0-0-0-0-0-0-2--|
|---------------------|---------------------|--------------------|


  Q.   Q.   Q  Q    Q.   Q.   Q  Q    E E E E E E E E E E
|-----------------|-----------------|---------------------|
|-----------------|-----------------|---------------------|
|-----------------|-----------------|---------------------|
|------2----------|------2----------|-4-4-4-4-4-4-4-4-4-4-|
|-4---------3--2--|-4---------3--2--|---------------------|
|-----------------|-----------------|---------------------|


  E E E E E E E E E E   E E E E E E E E E E   E E E E E E E E E E
|---------------------|---------------------|---------------------|
|---------------------|---------------------|---------------------|
|---------------------|-1-1-1-1-1-1-1-1-1-1-|---------------------|
|---------------------|---------------------|-0-0-0-0-0-0-0-0-0-0-|
|-0-0-0-0-0-0-0-0-0-0-|---------------------|---------------------|
|---------------------|---------------------|---------------------|


   4/4               7/8               6/4
    E E E E E E E E   E E E E E E E  3x E E E E E E E E E E E E
||------------------|----------------||-------------------------|
||o-----------------|---------------o||-------------------------|
||--------1-------0-|----------------||-------1-------3-------4-|
||------------------|-------3-2------||-----------------2-1-2---|
||o-4-2-4---4-2-4---|-4-2-4-----4-2-o||-4-2-4---4-2-4-----------|
||------------------|----------------||-------------------------|


 4/4                   5/4
  E E E S S E E E E     Q.   Q.   Q  Q    Q.   Q.   Q  Q
|-------------------||------------------|-----------------|
|-----1-------------||o-----------------|-----------------|
|-3-4---4-3-0-3-----||------------------|-----------------|
|---------------2-1-||-------2----------|------2----------|
|-------------------||o-4---------3--2--|-4---------3--2--|
|-------------------||------------------|-----------------|


  Q.   Q.   Q  Q    Q.   Q.   Q  Q   3x     Q.   Q.   Q  Q   3x
|-----------------|------------------||-||-------------------||
|-----------------|-----------------o||-||o-----------------o||
|-----------------|------------------||-||-------------------||
|------2----------|-3----2----1--0---||-||-------2-----------||
|-4---------3--2--|-----------------o||-||o-4---------3--2--o||
|-----------------|------------------||-||-------------------||


  E E E E E E E E E E   E E E E E E E E E E   E E E E E E E E Q
|---------------------|---------------------|--------------------|
|---------------------|---------------------|--------------------|
|---------------------|---------------------|--------------------|
|-3-3-3-2-2-2-1-1-0-0-|-4-4-4-4-4-4-4-4-4-4-|--------------------|
|---------------------|---------------------|-0-0-0-0-0-0-0-0-2--|
|---------------------|---------------------|--------------------|


  Q.   Q.   Q  Q    Q.   Q.   Q  Q    E E E E E E E E E E
|-----------------|-----------------|---------------------|
|-----------------|-----------------|---------------------|
|-----------------|-----------------|---------------------|
|------2----------|------2----------|-4-4-4-4-4-4-4-4-4-4-|
|-4---------3--2--|-4---------3--2--|---------------------|
|-----------------|-----------------|---------------------|


                                             6/4
  E E E E E E E E E E   E E E E E E E E E E   E E E E E E E E E E E E
|---------------------|---------------------|-------------------------|
|---------------------|---------------------|-------------------------|
|---------------------|-1-1-1-1-1-1-1-1-1-1-|-------------------------|
|---------------------|---------------------|-0-0-0-0-0-0-0-0-0-0-0-0-|
|-0-0-0-0-0-0-0-0-0-0-|---------------------|-------------------------|
|---------------------|---------------------|-------------------------|


                                            Q.=60
 5/4                                         6/8
  E E E E E E E E E E   E E E E E E E E E E   Q.   Q.
|---------------------|---------------------|-----------|
|---------------------|---------------------|-----------|
|---------------------|---------------------|-----------|
|-4-4-4-4-4-4-4-4-4-4-|---------------------|-6----8----|
|---------------------|-0-0-0-0-0-0-0-0-0-0-|-----------|
|---------------------|---------------------|-----------|


   Q.   Q.     H.        +H.        +H.        +H.
|------------|---------|----------|----------|--------|
|------------|---------|----------|----------|--------|
|------------|---------|----------|----------|--------|
|-10---------|---------|----------|----------|--------|
|-------9\---|---------|----------|----------|--------|
|------------|-3-------|-(3)------|-(3)------|-(3)----|


  H.        H.        H.         H.
|---------|---------|---------|--------|
|---------|---------|---------|--------|
|---------|---------|---------|--------|
|-5-------|-2-------|-1-------|-/7-----|
|---------|---------|---------|--------|
|---------|---------|---------|--------|


  H.        H.        H.        Q.   Q.
|---------|---------|---------|------------|
|---------|---------|---------|------------|
|---------|---------|---------|-5----6-----|
|-5-------|-2-------|---------|------------|
|---------|---------|-4-------|------------|
|---------|---------|---------|------------|


  H.        H.        H.        H.
|---------|---------|---------|-------|
|---------|---------|---------|-------|
|---------|---------|---------|-------|
|-5-------|-2-------|-1-------|-7-----|
|---------|---------|---------|-------|
|---------|---------|---------|-------|


  Q=172
 5/4
  Wx7            E E E E E E E E E E     E E E E E E E E E E  3x
|--------------|---------------------||-----------------------||
|--------------|---------------------||o---------------------o||
|--------------|---------------------||-----------------------||
|--------------|-3-3-3-2-2-2-1-1-0-0-||--------2-2-2----------||
|--------------|---------------------||o-4-4-4-------3-3-2-2-o||
|--------------|---------------------||-----------------------||


  E E E E E E E E E E     E E E E E E E E E E  3x E E E E E E E E E E
|---------------------||-----------------------||---------------------|
|---------------------||o---------------------o||---------------------|
|---------------------||-----------------------||---------------------|
|-3-3-3-2-2-2-1-1-0-0-||--------2-2-2----------||-3-3-3-2-2-2-1-1-0-0-|
|---------------------||o-4-4-4-------3-3-2-2-o||---------------------|
|---------------------||-----------------------||---------------------|


    Q=100
   4/4
                                                  |-3-|
    S S S S S S S S S S S S S S S S   S S S S S S S S S S S S S S S S S
||----------------------------------|------------------------------------|
||o---------------------------------|------------------------------------|
||----------------------------------|-----------6-4---------------4-3----|
||--------2---4-2-------------------|-------2-------6-4---4-----4-----4--|
||o-2h4-4---4-----4-2h4-4-4-2h4-4-4-|-2-4-4---4---------1---1-2----------|
||----------------------------------|------------------------------------|


                                                |-3-|
  S S S S S S S S S S S S S S S S   S S S S S S S S S E. S +E  E
|---------------------------------|-------------------------------||
|---------------------------------|------------------------------o||
|---------------------------------|-------------------------------||
|-------2---4-2-------------------|-------2---4-------2--4-(4)----||
|-2h4-4---4-----4-2h4-4-4-2h4-4-4-|-2-4-4---4---2-3-4----------2-o||
|---------------------------------|-------------------------------||


 3/4
  S S S S S S S S S S S S   S S S S S S S S S S S S
|-------------------------|-------------------------|
|-------------------6-8-9-|-------------------------|
|-----------------6-------|-6---6-8-9-------6-------|
|-------6-7-6-7-9---------|---7-------6-7-9---7---6-|
|-9-8-9-------------------|---------------------9---|
|-------------------------|-------------------------|


 4/4
  |-3-|                             |-3-|
  S S S S S S S S S S S S S S E S   S S S S S S S S S S S S S S E.
|---------------------------------|--------------------------------|
|---------------------------------|--------------------------------|
|---------------------------------|--------------------------------|
|-------2---2-4-5-6---------------|-------2---2-4-5-6--------------|
|-2-3-4---4---------7-4---4---4-4-|-2-3-4---4---------7-4---4---4--|
|---------------------------------|--------------------------------|


 3/4
  S S S S S S S S S S S S   S S S S S S S S S S S S
|-------------------------|-------------------------|
|-------------------6-8-9-|-------------------------|
|-----------------6-------|-6---6-8-9-------6-------|
|-------6-7-6-7-9---------|---7-------6-7-9---7---6-|
|-9-8-9-------------------|---------------------9---|
|-------------------------|-------------------------|


                           4/4
  S S S S S S S S S S S S   S S S S S S S S S T T S S S S S S
|-------------------------|------------------------------------|
|-------------------5-----|------------------------------------|
|-5---5-7-5---8-5-----8-7-|---6-------6------------------------|
|---6-------6-----6-------|-6-----6-7---6-7-9-7-6---7-0-7-6----|
|-------------------------|-----9-----------------9------------|
|-------------------------|---------------------------------9--|


 5/4
  S S S S S S S S S S S S S S S S S S S S
|-----------------------------------------|
|-----------------------------------------|
|-----------------------------------------|
|-------2-------4---3---2-----------------|
|-2-3-4---4-3-2---2---4---4-3-2-3-4-4-4-4-|
|-----------------------------------------|


  S S S S S S S S S S S S S S S S T T T T S S
|---------------------------------------------|
|---------------------------------------------|
|---------------------------------------------|
|-------2-------4---3---2---------------------|
|-2-3-4---4-3-2---2---4---4-3-2-3-0-0-0---0-0-|
|---------------------------------------------|


                                           4/4
  S S S S S S S S S S S S S S S S S S S S   S S S S S S S S S S S S S S S S
|-----------------------------------------|----------------------------------|
|-----------------------------------------|----------------------------------|
|-----------------------------------------|----------------------------------|
|-------2-------4---3---2-----------------|-------2---------2-4-4-4-2-4-4-4--|
|-2-3-4---4-3-2---2---4---4-3-2-3-4-4-4-4-|-2-3-4---4-3-2-3------------------|
|-----------------------------------------|----------------------------------|


 5/4
  S S S S S S S S S S S S S S S S S S S S
|-----------------------------------------|
|-----------------------------------------|
|-----------------------------------------|
|-------2-------4---3---2-----------------|
|-2-3-4---4-3-2---2---4---4-3-2-3-4-4-4-4-|
|-----------------------------------------|


  S S S S S S S S S S S S S S S S T T T T T T T T
|--------------------------------------------------|
|--------------------------------------------------|
|--------------------------------------------------|
|-------2-------4---3---2--------------------------|
|-2-3-4---4-3-2---2---4---4-3-2-3-0-0-0---0-0-0----|
|--------------------------------------------------|


                                           4/4
  S S S S S S S S S S S S S S S S S S S S   S S S S S S S S S S S S S S S S
|-----------------------------------------|----------------------------------|
|-----------------------------------------|----------------------------------|
|-----------------------------------------|----------------------------------|
|-------2-------4---3---2-----------------|-------2---------2h4-4-4-2h4-4-4--|
|-2-3-4---4-3-2---2---4---4-3-2-3-4-4-4-4-|-2-3-4---4-3-2-3------------------|
|-----------------------------------------|----------------------------------|


 15/16
  S S S S S S S S S S S S S S S   S S S S S S S S S S S S S S S
|-------------------------------|-------------------------------|
|-------------------------------|-------------------------------|
|-------1-------0---------------|-------1-------0---------------|
|-----------------------3-2-----|-----------------------3-2-----|
|-4-2-4---4-2-4---4-2-4-----4-2-|-4-2-4---4-2-4---4-2-4-----4-2-|
|-------------------------------|-------------------------------|


                                 21/16
  S S S S S S S S S S S S S S S   S S S S S S S S S S S S S S S T T S S S S S
|-------------------------------|---------------------------------------------|
|-------------------------------|-----------------------------1---------------|
|-------1-------0---------------|-------1-------3-------4-3-4---4-3-0-3-------|
|-----------------------3-2-----|-----------------2-1-2-----------------2-1-2-|
|-4-2-4---4-2-4---4-2-4-----4-2-|-4-2-4---4-2-4-------------------------------|
|-------------------------------|---------------------------------------------|


 3/4
  S S S S S S S S S S S S   S S S S S S S S S S S S
|-------------------------|-------------------------|
|-------------------6-8-9-|-------------------------|
|-----------------6-------|-6---6-8-9-------6-------|
|-------6-7-6-7-9---------|---7-------6-7-9---7---6-|
|-9-8-9-------------------|---------------------9---|
|-------------------------|-------------------------|


 15/16
  S S S S S S S S S S S S S S S   S S S S S S S S S S S S S S S
|-------------------------------|-------------------------------|
|-------------------------------|-------------------------------|
|-------1-------0---------------|-------1-------0---------------|
|-----------------------3-2-----|-----------------------3-2-----|
|-4-2-4---4-2-4---4-2-4-----4-2-|-4-2-4---4-2-4---4-2-4-----4-2-|
|-------------------------------|-------------------------------|


 3/4
  S S S S S S S S S S S S   S S S S S S S S S S S S
|-------------------------|-------------------------|
|-------------------6-8-9-|-------------------------|
|-----------------6-------|-6---6-8-9-------6-------|
|-------6-7-6-7-9---------|---7-------6-7-9---7---6-|
|-9-8-9-------------------|---------------------9---|
|-------------------------|-------------------------|

                                  Q=140
 3/4                               4/4
                                    |-3-| |-3-| |-3-|
  S S S S S S S S T T T T T T T T   E E E E E E E E E Q
|---------------------------------|-----------------------|
|---------------------------5-----|-----------------------|
|-5---5-7-5---8-5-----5-7-8---8-7-|-----------------------|
|---6-------6-----6-8-------------|-6-6-6-8-8-8-9-9-9-----|
|---------------------------------|-------------------9\--|
|---------------------------------|-----------------------|


  Q.=60
 6/8
  H.        +H.        +H.        +H.
|---------|----------|----------|--------|
|---------|----------|----------|--------|
|---------|----------|----------|--------|
|---------|----------|----------|--------|
|---------|----------|----------|--------|
|-3-------|-(3)------|-(3)------|-(3)----|


  H.        H.        H.        H.
|---------|---------|---------|-------|
|---------|---------|---------|-------|
|---------|---------|---------|-------|
|-5-------|-2-------|-1-------|-------|
|---------|---------|---------|-0-----|
|---------|---------|---------|-------|


  H.        H.        H.        Q.   Q.
|---------|---------|---------|------------|
|---------|---------|---------|------------|
|---------|---------|---------|-5----6-----|
|-5-------|-2-------|---------|------------|
|---------|---------|-4-------|------------|
|---------|---------|---------|------------|


  H.        H.        H.        Q.   Q.
|---------|---------|---------|------------|
|---------|---------|---------|------------|
|---------|---------|---------|------------|
|-5-------|-2-------|-1-------|------0-----|
|---------|---------|---------|-0----------|
|---------|---------|---------|------------|


    H.         H.         H.        H.
||----------|----------|----------|-------|
||o---------|----------|----------|-------|
||--0-------|-/9-------|-\5-------|-------|
||----------|----------|----------|-7\----|
||o---------|----------|----------|-------|
||----------|----------|----------|-------|


  Q.    Q.     H.        H.        H.
|------------|---------|---------|--------||
|------/7----|---------|---------|-------o||
|-0----------|-6-------|-5-------|-7------||
|------------|---------|---------|--------||
|------------|---------|---------|-------o||
|------------|---------|---------|--------||


  Q=172
 5/4            12/8
  Wx7            E E E E E E E E E E E E   E E E E E E E E E E E E
|--------------|-------------------------|--------------------------|
|--------------|-------------------------|--------------------------|
|--------------|-------------------------|--------------------------|
|--------------|-3-3-3-2-2-2-1-1-1-0-0-0-|-------2-2-2--------------|
|--------------|-------------------------|-4-4-4-------3-3-3-2-2-2--|
|--------------|-------------------------|--------------------------|


  E E E E E E E E E E E E
|-------------------------|
|-------------------------|
|-------------------------|
|-------2-2-2-------------|
|-4-4-4-------3-3-3-2-2-2-|
|-------------------------|


  E E E E E E S S E E E E E   E E E E E E E E E E E E
|---------------------------|-------------------------|
|---------------------------|-------------------------|
|---------------------------|-------------------------|
|-------2-2-2---------------|-3-3-3-2-2-2-1-1-1-0-0-0-|
|-4-4-4-------3-3-3-3-2-2-2-|-------------------------|
|---------------------------|-------------------------|


  E E E E E E E E E E E E   E E E E E E E E E E E E   E E E E E E E E E E E E
|-------------------------|-------------------------|--------------------------|
|-------------------------|-------------------------|--------------------------|
|-------------------------|-------------------------|--------------------------|
|-------2-2-2-------------|-------2-2-2-------------|-------2-2-2--------------|
|-4-4-4-------3-3-3-2-2-2-|-4-4-4-------3-3-3-2-2-2-|-4-4-4-------3-3-3-2-2-2--|
|-------------------------|-------------------------|--------------------------|


  E E E E E E E E E E E E     Q.   Q.   Q.   Q  E  7x Q.   Q.   Q.   Q.
|-------------------------||-----------------------||----------------------|
|-------------------------||o---------------------o||----------------------|
|-------------------------||-----------------------||----------------------|
|-3-3-3-2-2-2-1-1-1-0-0-0-||-------2---------------||------2---------------|
|-------------------------||o-4---------3----2--0-o||-4---------3----2-----|
|-------------------------||-----------------------||----------------------|


    Q.   Q.   Q.   Q  E  3x Q.   Q.   Q.   Q.       Q.   Q.   Q.   Q  E  4x
||-----------------------||---------------------||-----------------------||
||o---------------------o||---------------------||o---------------------o||
||-------2---------------||------2--------------||-----------------------||
||--4---------3----2-----||-4-------------------||-------2---------------||
||o-------------------0-o||-----------2----3----||o-4---------3----2--0-o||
||-----------------------||---------------------||-----------------------||


  Q.   Q.   Q.   Q.     Q.   Q.   Q.   Q.       Q.   Q.   Q.   Q  E
|---------------------|---------------------||------------------------||
|---------------------|---------------------||o----------------------o||
|---------------------|---------------------||------------------------||
|-1----1----1----1----|-0----0--------------||-------2----------------||
|---------------------|-----------2----3----||o-4---------3----2--0--o||
|---------------------|---------------------||------------------------||


  Q.   Q.   Q.   Q.     Q.   Q.   Q.   Q.
|---------------------|---------------------|
|---------------------|---------------------|
|---------------------|---------------------|
|-1----1----1----1----|-2----2--------------|
|---------------------|-----------2----3----|
|---------------------|---------------------|


    Q=95
   4/4
    |-3-|                               |-3-|
    S S S S S S S S S S S S S S E S  3x S S S S S S S S S S S S S S E.
||-----------------------------------||---------------------------------|
||o---------------------------------o||---------------------------------|
||-----------------------------------||---------------------------------|
||--------2---2-4-5-6-2--------------||-------2---2-4-5-6-2-------------|
||o-2-3-4---4-----------4---4---4-4-o||-2-3-4---4-----------4---4---4---|
||-----------------------------------||---------------------------------|


    |-3-|                               |-3-|
    S S S S S S S S S S S S S S E S  7x S S S S S S S S S S S S S S E.
||-----------------------------------||--------------------------------|
||o---------------------------------o||--------------------------------|
||-----------------------------------||--------------------------------|
||--------5---5-7-8-9-5--------------||-------5---5-7-8-9-5------------|
||o-5-6-7---7-----------7---7---7-7-o||-5-6-7---7-----------7---7---7--|
||-----------------------------------||--------------------------------|


    |-3-|                               |-3-|
    S S S S S S S S S S S S S S E S  3x S S S S S S S S S S S S S S E.
||-----------------------------------||--------------------------------|
||o---------------------------------o||--------------------------------|
||--------5---5-7-8-9-5--------------||-------5---5-7-8-9-5------------|
||--5-6-7---7-----------7---7---7-7--||-5-6-7---7-----------7---7---7--|
||o---------------------------------o||--------------------------------|
||-----------------------------------||--------------------------------|


    |-3-|                               |-3-|
    S S S S S S S S S S S S S S E S  3x S S S S S S S S S S S S S S E.
||-----------------------------------||--------------------------------|
||o---------------------------------o||--------------------------------|
||-----------------------------------||--------------------------------|
||--------5---5-7-8-9-5--------------||-------5---5-7-8-9-5------------|
||o-5-6-7---7-----------7---7---7-7-o||-5-6-7---7-----------7---7---7--|
||-----------------------------------||--------------------------------|


  E S S S S S S +S  S S S +S  S E   Q  Q  Q  Q
|---------------------------------|-------------|
|-----------4-6-(6)-----4-(4)-6-4-|-------------|
|-------4-6---------6-6-----------|-------------|
|-4-4-7---------------------------|-3--3--------|
|---------------------------------|-------5--6--|
|---------------------------------|-------------|


  |-3-|                             |-3-|
  S S S S S S S S S S S S S S E S   S S S S S S S S S S S S S S E.
|---------------------------------|--------------------------------|
|---------------------------------|--------------------------------|
|---------------------------------|--------------------------------|
|-------5---5-7-8-9-5-------------|-------5---5-7-8-9-5------------|
|-5-6-7---7-----------7---7---7-7-|-5-6-7---7-----------7---7---7--|
|---------------------------------|--------------------------------|


  E S S S S S S +S  S S S +S  S E   Q  Q  Q  Q
|-------------------------------4-|-------------|
|-----------4-6-(6)-----4-(4)-6---|-------------|
|-------4-6---------6-6-----------|-------------|
|-4-4-7---------------------------|-5--5--------|
|---------------------------------|-------5--6--|
|---------------------------------|-------------|


    Q=100
                                   9/8
    S S  S S  E S  S S S  E E S S   E S  S S S  E S  S S S  E E E
||--------------------------------|--------------------------------||
||o-------------------------------|-------------------------------o||
||----------------------------7---|-9------------------------------||
||-------7-----------7------------|--------7-----------7-----------||
||o-7-10---7-10-7-10---7-10-7-----|---7-10---7-10-7-10---7-10-7---o||
||--------------------------------|--------------------------------||


 17/4
  SSSS E S S S S E E S S E S S S S E S S S S E E
|------------------------------------------------|
|------------------------------------------------|
|------------------------------------------------|
|--------------------3---5-----------------------|
|---3--------3-----------------3---------3-------|
|-36-3-6-3-6---3-6-3-------3-6---3-6-3-6---3-6-3-|


 E S S S S E S S S S E E S S E S S S S E S S S S E E E
-------------------------------------------------------|
-------------------------------------------------------|
-------------------------------------------------------|
-------------------------3---5-------------------------|
-------3---------3-----------------3---------3---------|
---3-6---3-6-3-6---3-6-3-------3-6---3-6-3-6---3-6-3---|


  S S S S E S S S S E E S S E S S S S E S S S S E E
|---------------------------------------------------|
|---------------------------------------------------|
|---------------------------------------------------|
|-----------------------3---5-----------------------|
|-----3---------3-----------------3---------3-------|
|-3-6---3-6-3-6---3-6-3-------3-6---3-6-3-6---3-6-3-|


 E S S S S E S S S S E E S S E S S S S E S S S S E E E
--------------------------------------------------------|
--------------------------------------------------------|
--------------------------------------------------------|
-------------------------3---5--------------------------|
-------3---------3-----------------3---------3----------|
---3-6---3-6-3-6---3-6-3-------3-6---3-6-3-6---3-6-3----|


   4/4                         9/8
    S S S S E S S S S E E S S   E S S S S E S S S S E E E  4x
||----------------------------|----------------------------||
||o---------------------------|---------------------------o||
||----------------------------|----------------------------||
||------------------------6---|-8--------------------------||
||o-----6---------6-----------|-------6---------6---------o||
||--6-9---6-9-6-9---6-9-6-----|---6-9---6-9-6-9---6-9-6----||


 4/4
  S S S S E S S S S S S S S S S   S S S S E S S S S S S S S E
|-------------------------------|------------------------------|
|-------------------------------|------------------------------|
|-------------------------------|------------------------------|
|-------------------------------|---------------------------2--|
|-2h4-4-4-4-2h4-4-4-4-4-2h4-4-4-|-2h4-4-4-4-2h4-4-4-4-4-2h4----|
|-------------------------------|------------------------------|


  S S S S E S S S S S S S S S S   S S S S E S S S S E S S E
|-------------------------------|---------------------------|
|-------------------------------|---------------------------|
|-------------------------------|-------------------------4-|
|-------------------------------|---------------------4-6---|
|-2h4-4-4-4-2h4-4-4-4-4-2h4-4-4-|-2h4-4-4-4-2h4-4-4-2-------|
|-------------------------------|---------------------------|


  S S S S E S S S S S S S S S S   S S S S E S S S S S S S S E
|-------------------------------|-----------------------------|
|-------------------------------|-----------------------------|
|-------------------------------|-----------------------------|
|-------------------------------|---------------------------2-|
|-2h4-4-4-4-2h4-4-4-4-4-2h4-4-4-|-2h4-4-4-4-2h4-4-4-4-4-2h4---|
|-------------------------------|-----------------------------|


                                    |-3-|     |-3-|
  S S S S E S S S S S S S S S S   E S S S E S S S S S S S S E.
|-------------------------------|-------------------------------|
|-------------------------------|-4-----------------------------|
|-------------------------------|---6-4---6-4-------------------|
|-------------------------------|-------6-----6-4---4-5-6-------|
|-2h4-4-4-4-2h4-4-4-4-4-2h4-4-4-|-----------------7-------7-----|
|-------------------------------|---------------------------7---|


                                                   |-3-|
    S S S S E S S S S S S S E.   S S S S E S S E E S S S E
||-----------------------------|---------------------------|
||o----------------------------|---------------4-----------|
||------------------------4-6--|-----------------6-4-------|
||------4---------4-5-6--------|-----4---------------6-4---|
||o-4-7---4-7-4-7-------4------|-4-7---4-7-4-------------7-|
||-----------------------------|---------------------------|


                                 |-3-|     |-3-|
  S S S S E S S S S S S S E.   E S S S E S S S S S S S S E.
|----------------------------|-------------------------------||
|----------------------------|-4----------------------------o||
|-----------------------4-6--|---6-4---6-4-------------------||
|-----4---------4-5-6--------|-------6-----6-4---4-5-6-------||
|-4-7---4-7-4-7-------4------|-----------------7-------7----o||
|----------------------------|---------------------------7---||


  S S S S S S S S S S S S S S S S   S S S S S S S S S S S S Q
|---------------------------------|-----------------------------|
|---------------------------------|-----------------------------|
|---------------------------------|-----------------------------|
|-4-4-4-4-4-4-4-4-4-4-4-4-4-4-4-4-|-----------------------------|
|---------------------------------|-0-0-0-0-0-0-0-0-0-0-0-0-2---|
|---------------------------------|-----------------------------|


                                 |-3-|     |-3-|
  S S S S E S S S S S S S E.   E S S S E S S S S S S S S E.
|----------------------------|------------------------------|
|----------------------------|-4----------------------------|
|-----------------------4-6--|---6-4---6-4------------------|
|-----4---------4-5-6--------|-------6-----6-4---4-5-6------|
|-4-7---4-7-4-7-------4------|-----------------7-------7----|
|----------------------------|---------------------------7--|


  S S S S S S S S S S S S S S S S   S S S S S S S S S S S S S S S S
|---------------------------------|---------------------------------|
|---------------------------------|---------------------------------|
|---------------------------------|---------------------------------|
|-4-4-4-4-4-4-4-4-4-4-4-4-4-4-4-4-|---------------------------------|
|---------------------------------|-0-0-0-0-0-0-0-0-0-0-0-0-0-0-0-0-|
|---------------------------------|---------------------------------|


 6/8
  Q.   Q.     Q.   Q.      Q.    Q.     Q.   Q.
|-----------|-----------|-------------|-----------|
|-----------|-----------|-------------|-----------|
|-----------|-----------|-------------|-----------|
|-6----6----|-8----8----|-10----10----|-----------|
|-----------|-----------|-------------|-9----9----|
|-----------|-----------|-------------|-----------|


  Q.   Q.     H.        H.        Q.   Q.
|-----------|---------|---------|------------|
|-----------|---------|---------|------------|
|-----------|---------|---------|------------|
|------5----|-2-------|---------|------------|
|-----------|---------|-4-------|-3----4-----|
|-3---------|---------|---------|------------|


  H.        H.        H.        H.
|---------|---------|---------|-------|
|---------|---------|---------|-------|
|---------|---------|---------|-------|
|-5-------|-2-------|-1-------|-------|
|---------|---------|---------|-0-----|
|---------|---------|---------|-------|


  H.        H.        H.        Q.   Q.
|---------|---------|---------|------------|
|---------|---------|---------|------------|
|---------|---------|---------|-5----6-----|
|-5-------|-2-------|---------|------------|
|---------|---------|-4-------|------------|
|---------|---------|---------|------------|


  H.        H.        H.        Q.   Q.
|---------|---------|---------|------------|
|---------|---------|---------|------------|
|---------|---------|---------|------------|
|-5-------|-2-------|-1-------|------0-----|
|---------|---------|---------|-0----------|
|---------|---------|---------|------------|


    H.         H.         H.        H.
||----------|----------|----------|-------|
||o---------|----------|----------|-------|
||--0-------|-/9-------|-\5-------|-------|
||----------|----------|----------|-7\----|
||o---------|----------|----------|-------|
||----------|----------|----------|-------|


  Q.    Q.     H.        H.        H.
|------------|---------|---------|--------||
|------/7----|---------|---------|-------o||
|-0----------|-6-------|-5-------|-7------||
|------------|---------|---------|--------||
|------------|---------|---------|-------o||
|------------|---------|---------|--------||


  H.        +H.        +H.        +H.
|---------|----------|----------|--------*|
|---------|----------|----------|--------*|
|---------|----------|----------|--------*|
|---------|----------|----------|--------*|
|---------|----------|----------|--------*|
|-3-------|-(3)------|-(3)------|-(3)----*|


5. Through Her Eyes

Tuning (B E A D G)
Fretless Bass

  Intro
G|------------------------------------------------12-11-----------------------------|-----11/12\11~--------||
D|----------/12\-(9)------------------------10-12-------12~--10~--------------12~---|----------------12~---||
A|-------10-------------------------------------------------------------10-10-------|----------------------||
E|-----------------------7~------7\0~-----------------------------------------------|----------------10----||
B|-8~-------------------------------------------------------------------------------|--8-------------------||
    
                                          Vocals enter
G|---------------------------------------|------------------------------------------------------------------||
D|---12/14------------14\10~-------------|----------5-5-----------------------------------------------------||
A|---------------------------------------|--------------------------------7~--5~--3~--3-3-------------------||
E|------12------12-------------8~--------|--3---3-3------2---2~---0~----0----------------------3~--3-3--2~--||
B|---------------------------------------|-----------------2------------------------------------------------||


G|-------------------------------------------------------------------|--------------------------7~---7/9\7~--|
D|--12^14--------------14\------------------------------12-14-12~----|------------------------7--------------|
A|-----------------------------------------------12^14---------------|------2~----7---------5----------------|
E|--------12---12-12~-------8~--8-8~---0~------------------------10\-|--3~----------0------------------------|
B|-------------------------------------------------------------------|---------------------------------------|


G|---------------------------------9/11\9~--------------------------------------------------------9/11-9-----|
D|-------5~----------------------9-----------------------------------12^14-------14\10-----------9-----------|
A|-----------------------5^7----------------3~------------5/7\5~------------------------------------------5--|
E|--3~--3-----2~----2--------0---------------------3----5------------------12--------(8)------0--------------|
B|----------------2------------------------------------------------------------------------------------------|


G|-----------------------------------------------------||
D|-----------------------------------------------------||
A|-------3~--------5----------3--------/10-9-----------||
E|--5~--------3~----------5-------0----------10-8\-----||
B|------------------(3)-----------------------------3~-||


G|------------------------------------------------------------------------------------------------||
D|------5~------------------12/14~\----------5~---7^9-7--------------------------------12/14~\10--||
A|-----5-----------------12-----------------5-----------10~-9~-----7----7-9-----------------------||
E|--3~------2~--2---0----------------8---3---------------------------10-----10\0-----12--------(8)||
B|------------------------------------------------------------------------------------------------||


G|--------------11/12\11-------------||------------------------11/12\11---------------------|
D|-----------------------12\10-------||---------------------------------10/12--------10/12--|
A|-----5/7\5-------------------------||-------------------------------------------10--------|
E|-0--------------------------8------||-3--------7---------0------------------8-------------|
B|-----------------------------------||-----------------------------------------------------|


G|----------------------------12-11----------------------------------------------|
D|----5-----------------12-14-------12/14---------14\----------------------------|
A|---5------7\5-----/14------------------------14----3---------------------------|
E|-3--------------------------------------0-----------------3------7-----0-------|
B|-------------------------------------------------------------------------------|





6. Home

Gtr I (B E A D G C) - 

    Q=95
   4/4
    Gtr I
    E E S S S S S S S S S S E   E E S S S S S S S S S S E
||----------------------------|---------------------------|
||o-----7h8---5h7---7h8---5h7-|-----7h8---5h7---7h8---5h7-|
||--0-0-----0-----0-----0-----|-0-0-----0-----0-----0-----|
||----------------------------|---------------------------|
||o---------------------------|---------------------------|
||----------------------------|---------------------------|


                                                      |-3-|
  E E S S S S S S S S S S E   E E S S S S S S S S S S S S S
|---------------------------|--------------------------------|
|-----7h8---5h7---7h8---5h7-|--------------------------------|
|-0-0-----0-----0-----0-----|-0-0-7h8-0-5h7-0-7h8-0-3-3h5p3--|
|---------------------------|--------------------------------|
|---------------------------|--------------------------------|
|---------------------------|--------------------------------|


  E E S S S S S S S S S S E   E E S S S S S S S S S S E
|---------------------------|----------------------------|
|-----7h8---5h7---7h8---5h7-|-----7h8---5h7---7h8---5h7--|
|-0-0-----0-----0-----0-----|-0-0-----0-----0-----0------|
|---------------------------|----------------------------|
|---------------------------|----------------------------|
|---------------------------|----------------------------|


  E E S S S S S S S S S S E   E E S S S  S  S S  S  S S  S  E
|---------------------------|-----------------------------------||
|-----7h8---5h7---7h8---5h7-|-----7h8---11h12---11h12---12p11--o||
|-0-0-----0-----0-----0-----|-0-0-----0-------0-------0---------||
|---------------------------|-----------------------------------||
|---------------------------|----------------------------------o||
|---------------------------|-----------------------------------||


  E E S S S S S S S S S S E   E E S S S S S S S S S S E
|---------------------------|----------------------------|
|---------------------------|----------------------------|
|---------------------------|----------------------------|
|-----5h6---3h5---5h6---3h5-|-----5h6---3h5---5h6---3h5--|
|---------------------------|----------------------------|
|-3-3-----3-----3-----3-----|-3-3-----3-----3-----3------|


                                                      |-3-|
  E E S S S S S S S S S S E   E E S S S S S S S S S S S S S
|---------------------------|--------------------------------|
|---------------------------|--------------------------------|
|---------------------------|--------------------------------|
|-----5h6---3h5---5h6---3h5-|--------------------------------|
|---------------------------|-----5h6---3h5---5h6---1-1h3-1--|
|-3-3-----3-----3-----3-----|-3-3-----3-----3-----3----------|


  E E S S S S S S S S S S E   E E S S S S S S S S S S E
|---------------------------|----------------------------|
|---------------------------|----------------------------|
|---------------------------|----------------------------|
|-----5h6---3h5---5h6---3h5-|-----5h6---3h5---5h6---3h5--|
|---------------------------|----------------------------|
|-3-3-----3-----3-----3-----|-3-3-----3-----3-----3------|


  E E S S S S S S S S S S E   E E S S S S S S S S S S E
|---------------------------|----------------------------|
|---------------------------|----------------------------|
|---------------------------|-----------4-5---4-5---5-4--|
|-----5h6---3h5---5h6---3h5-|-----5-6--------------------|
|---------------------------|----------------------------|
|-3-3-----3-----3-----3-----|-3-3-----3-----3-----3------|


    E S S E S S +S  S S S S S E   E S S E S S +S  S S S S S E
||------------------------------|------------------------------|
||o-------7---------7-----5h7---|-------7---------7-----5h7----|
||--0-0-0---0-0-(0)---0-0-----0-|-0-0-0---0-0-(0)---0-0-----0--|
||------------------------------|------------------------------|
||o-----------------------------|------------------------------|
||------------------------------|------------------------------|


  E S S E S S +S  S S S S S E   E S S E S S +S  S S S S S E
|-----------------------------|-------------------------------||
|-------7---------7-----5h7---|-------5---------5-----3h5----o||
|-0-0-0---0-0-(0)---0-0-----0-|-------------------------------||
|-----------------------------|-3-3-3---3-3-(3)---3-3-----3---||
|-----------------------------|------------------------------o||
|-----------------------------|-------------------------------||


    E E E S S +S  S E E. S
||-------------------------|
||o------------------------|
||-------------------------|
||-------------------------|
||o------------------------|
||--3-3---3-3-(3)-3-3----3-|


  E E E S S +S  S S S S S E   E E E S S +S  S E E. S
|---------------------------|--------------------------|
|---------------------------|--------------------------|
|---------------------------|--------------------------|
|---------------------------|--------------------------|
|-----------------5-6---3-4-|--------------------------|
|-3-3---3-3-(3)-3-----3-----|-3-3---3-3-(3)-3-3----3---|


                  |-3-|
  E E E S S +S  S S S S S S S S  3x
|--------------------------------||-|
|-------------------------------o||-|
|--------------------------------||-|
|-----------------------6-5------||-|
|---------------------3---------o||-|
|-3-3---3-3-(3)-3-3h6-------6-3--||-|


                                      |-3-|
    E E E S S +S  S E E. S   E E Q  E S S S S S S S
||-------------------------|--------------------------|
||o------------------------|--------------------------|
||-------------------------|----------------3---------|
||-------------------------|------------------5-------|
||o------------------------|--------------3-----4-3---|
||--3-3---3-3-(3)-3-3----3-|-3-3------3-6-------------|


                                    |-3-|
  E E E S S +S  S E E. S   E E Q  E S S S S S S S
|------------------------|-------------------------||
|------------------------|------------------------o||
|------------------------|-------------------------||
|------------------------|----------------3--------||
|------------------------|--------------3---5-----o||
|-3-3---3-3-(3)-3-3----3-|-3-3------3-6-------4-3--||


  $
      E E S S S S E E E S S
|-||-------------------------|
|-||o------------------------|
|-||----------7-8-7----------|
|-||--0-0-7-8-------0-0-8-7--|
|-||o------------------------|
|-||-------------------------|


  S E S S S S S E S S S S E   E E S S S S E E E S S
|---------------------------|-----------------------|
|---------------------------|-----------------------|
|---------------------5-7-5-|---------7-8-7---------|
|-5-4-------4-5---5-7-------|-0-0-7-8-------0-0-8-7-|
|-----5-6-5-----5-----------|-----------------------|
|---------------------------|-----------------------|


  S E S S S S S E S S S S E
|------------------------------||
|-----------------------------o||
|---------------------5-7-5----||
|-5-4-------4-5---5-7----------||
|-----5-6-5-----5-------------o||
|------------------------------||


  S S S S S S S S S S S S S S S S   S S S S S S S S S S S S S S S S
|---------------------------------|-----------------------------------|
|---------------------------------|-----------------------------------|
|---------------------------------|-----------------------------7-8---|
|---------------------------------|-----------------------5-7-8-------|
|-3-5-6-3-6-3-5-6-3-6-3-5-6-3-----|-3-5-6-3-6-3-5-6-3-5-6-------------|
|-----------------------------6-3-|-----------------------------------|


  E E S S S S E E E S S   S E S S S S S E S S S S E
|-----------------------|---------------------------|
|-----------------------|---------------------------|
|---------7-8-7---------|---------------------5-7-5-|
|-0-0-7-8-------0-0-8-7-|-5-4-------4-5---5-7-------|
|-----------------------|-----5-6-5-----5-----------|
|-----------------------|---------------------------|


  S S S S S S S S S S S S S S S S
|-----------------------------------|
|-----------------------------------|
|-----------------------------------|
|-----------------------------------|
|-3-5-6-3-6-3-5-6-3-6-3-5-6-3-------|
|-----------------------------6-3---|


                          |----6----|
  S S S S S S S S S S S S S S S S S S
|-------------------------------------|
|-------------------------------------|
|-------------------------------------|
|-----------------------3-5-6-5-3-----|
|-3-5-6-3-6-3-5-6-3-5-6-----------6-3-|
|-------------------------------------|


  Q.   S S +E  S S +Q     Q.   S S +E  S S +Q
|-----------------------|------------------------|
|-----------------------|------------------------|
|-----------------------|------------------------|
|-----------------------|------------------------|
|-4----4-4-(4)-4-4-(4)--|-1----1-1-(1)-1-1-(1)---|
|-----------------------|------------------------|


  S S S S S S S S S S S S S S S S   S S S S S S S S S S S S S S S S
|---------------------------------|---------------------------------|
|---------------------------------|---------------------------------|
|---------------------------------|---------------------------------|
|-3-3-3-3-3-3-3-3-3-3-3-3-3-3-3-3-|---------------------------------|
|---------------------------------|-4-4-4-4-4-4-4-4-4-4-4-4-4-4-4-4-|
|---------------------------------|---------------------------------|


   S S S S S S S S S S S S S S S S   H    H
|----------------------------------|-----------|
|----------------------------------|-----------|
|----------------------------------|-----------|
|-/8-8-8-8-8-8-8-8-8-8-8-8-8-8-8-8-|-6---------|
|----------------------------------|------6----|
|----------------------------------|-----------|


  S S S S S S S S S S S S S S S S   S S S S S S S S S S S S S S S S
|---------------------------------|---------------------------------|
|---------------------------------|---------------------------------|
|---------------------------------|---------------------------------|
|-3-3-3-3-3-3-3-3-3-3-3-3-3-3-3-3-|---------------------------------|
|---------------------------------|-4-4-4-4-4-4-4-4-4-4-4-4-4-4-4-4-|
|---------------------------------|---------------------------------|


   S S S S S S S S S S S S S S S S   H    H
|----------------------------------|-----------|
|----------------------------------|-----------|
|----------------------------------|-----------|
|-/8-8-8-8-8-8-8-8-8-8-8-8-8-8-8-8-|-----------|
|----------------------------------|-----------|
|----------------------------------|-4----3----|


  E. S E S   S  +E   S  S S  S  E   E. S S S   E  +E   S  S S  E.
|---------------------------------|-------------------------------|
|---------------------------------|-------------------------------|
|----------/10-(10)-10-10-8-10-10-|----------/10-(10)-10-10-8-10--|
|-3--3-3-3------------------------|-3--3-3-3----------------------|
|---------------------------------|-------------------------------|
|---------------------------------|-------------------------------|


  E. S E E +E  S S E E    E. S E E +E  S S S S E
|-----------------------|------------------------|
|-----------------------|------------------------|
|-----------------------|------------------------|
|-----------------------|------------------------|
|-5--5-5-5-(5)-5-5-5-5\-|-4--4-4-4-(4)-4-4-4-4-4-|
|-----------------------|------------------------|


  E. S S S E +E  S S S S E    E. S S S E +E  S S S S E
|---------------------------|---------------------------|
|---------------------------|---------------------------|
|---------------------------|---------------------------|
|-8--8-8-8-8-(8)-8-8-8-8-8--|---------------------------|
|---------------------------|-9--9-9-9-9-(9)-9-9-9-9-9--|
|---------------------------|---------------------------|


                     To Coda
  E. S S S E +E  S S S S E    Q  Q  Q  Q
|---------------------------|-------------|
|---------------------------|-------------|
|---------------------------|-------------|
|---------------------------|-------3--3--|
|-6--6-6-6-6-(6)-6-6-6-6-6--|-3--3--------|
|---------------------------|-------------|


                                                  |-3-| |-3-|
  S S S S E S S S S S S S S S S   S S S S S S S S E E E E E E
|-------------------------------|-----------------------------|
|-------------------------------|-----------------------------|
|-------------------------------|-----------------------------|
|-------------------------------|-----------------------------|
|-----------------------3-----3-|-----------------------------|
|-3-3-3-----3-3-3-3-6-3---3-6---|-3-3-3-3-3---1-1-1-1-1-1-1-1-|


  S S S S E S S S S S S S S S S   S S S S S S S S S S S S S S S S
|-------------------------------|----------------------------------|
|-------------------------------|----------------------------------|
|-------------------------------|----------------------------------|
|-------------------------------|---------------------3------------|
|-------------------------------|-------------------3-----3-----3--|
|-3-3-3-----3-3-3-3-5-3-6-3-5-6-|-3-3-3-3-3---1-1-1-----3---3-6----|


    E E S S S S S S S S S S E   E E S S S S S S S S S S E
||----------------------------|---------------------------|
||o-----7h8---5h7---7h8---5h7-|-----7h8---5h7---7h8---5h7-|
||--0-0-----0-----0-----0-----|-0-0-----0-----0-----0-----|
||----------------------------|---------------------------|
||o---------------------------|---------------------------|
||----------------------------|---------------------------|


  E E S S S S S S S S S S E   S S S S S S S S +E  S S S S E
|---------------------------|---------------------------------||
|-----7h8---5h7---7h8---5h7-|-------------------------3h5----o||
|-0-0-----0-----0-----0-----|---------------------------------||
|---------------------------|-3-3-3-3-3-3-3-3-(3)-3-3-----3---||
|---------------------------|--------------------------------o||
|---------------------------|---------------------------------||


    E E S S S S S S S S S S E   E E S S S S S S S S S S E
||----------------------------|---------------------------|
||o-----7h8---5h7---7h8---5h7-|-----7h8---5h7---7h8---5h7-|
||--0-0-----0-----0-----0-----|-0-0-----0-----0-----0-----|
||----------------------------|---------------------------|
||o---------------------------|---------------------------|
||----------------------------|---------------------------|


                                                      |-3-|
  E E S S S S S S S S S S E   E E S S S S S S S S S S S S S
|---------------------------|--------------------------------|
|-----7h8---5h7---7h8---5h7-|--------------------------------|
|-0-0-----0-----0-----0-----|-0-0-7h8-0-5h7-0-7h8-0-3-3h5p3--|
|---------------------------|--------------------------------|
|---------------------------|--------------------------------|
|---------------------------|--------------------------------|


  E E S S S S S S S S S S E   E E S S S S S S S S S S E
|---------------------------|----------------------------|
|-----7h8---5h7---7h8---5h7-|-----7h8---5h7---7h8---5h7--|
|-0-0-----0-----0-----0-----|-0-0-----0-----0-----0------|
|---------------------------|----------------------------|
|---------------------------|----------------------------|
|---------------------------|----------------------------|


                                                  D.S. al Coda
  E E S S S S S S S S S S E   E E S S S  S  S S  S  S S  S  E
|---------------------------|-----------------------------------||
|-----7h8---5h7---7h8---5h7-|-----7h8---11h12---11h12---12p11--o||
|-0-0-----0-----0-----0-----|-0-0-----0-------0-------0---------||
|---------------------------|-----------------------------------||
|---------------------------|----------------------------------o||
|---------------------------|-----------------------------------||


  &
  H    H        E. S +S  S E +E  S S S E. 24x     E. S +S  S E +E  S S S E.   8x
|-----------||-----------------------------||-||------------------------------||
|-----------||o------------7-(7)-----5h7--o||-||o----------------------------o||
|-----------||--0--0-(0)-0-------0-0-------||-||------------------------------||
|-----------||-----------------------------||-||-------------5-(5)-----3h5----||
|-3---------||o---------------------------o||-||o----------------------------o||
|------5----||-----------------------------||-||--3--3-(3)-3-------3-3--------||


    E S S S S S S S S S S S S S S   E S S S S S S S S S S S S S S   4x
||--------------------------------|---------------------------------||
||o-------------------------------|-----------5-4------------------o||
||----5---3-5---6---3-5-----------|---5---3-5-------6-5-------------||
||------------------------6-5-3-2-|-----------------------3-5-2-----||
||o-3---3-----3---3-----3---------|-3---3---------3-----3-------4--o||
||--------------------------------|---------------------------------||


  E E S S S S S S S S S S E   E E S S S S S S S S S S E
|---------------------------|----------------------------|
|-----7h8---5h7---7h8---5h7-|-----7h8---5h7---7h8---5h7--| 
|-0-0-----0-----0-----0-----|-0-0-----0-----0-----0------|
|---------------------------|----------------------------|
|---------------------------|----------------------------|
|---------------------------|----------------------------|


                                                      |-3-|
  E E S S S S S S S S S S E   E E S S S S S S S S S S S S S
|---------------------------|--------------------------------|
|-----7h8---5h7---7h8---5h7-|--------------------------------|
|-0-0-----0-----0-----0-----|-0-0-7h8-0-5h7-0-7h8-0-3-3h5p3--|
|---------------------------|--------------------------------|
|---------------------------|--------------------------------|
|---------------------------|--------------------------------|


  E E S S S S S S S S S S E   E E S S S S S S S S S S E
|---------------------------|----------------------------|
|-----7h8---5h7---7h8---5h7-|-----7h8---5h7---7h8---5h7--|
|-0-0-----0-----0-----0-----|-0-0-----0-----0-----0------|
|---------------------------|----------------------------|
|---------------------------|----------------------------|
|---------------------------|----------------------------|


  E E S S S S S S S S S S E   E E S S S  S  S S  S  S S  S  E
|---------------------------|----------------------------------|
|-----7h8---5h7---7h8---5h7-|-----7h8---11h12---11h12---12p11--|
|-0-0-----0-----0-----0-----|-0-0-----0-------0-------0--------|
|---------------------------|----------------------------------|
|---------------------------|----------------------------------|
|---------------------------|----------------------------------|


    E S S S S S S S S S S S S S S   E S S S S S S S S S S S S S S   3x
||--------------------------------|---------------------------------||
||o-------------------------------|-----------5-4------------------o||
||----5---3-5---6---3-5-----------|---5---3-5-------6-5-------------||
||------------------------6-5-3-2-|-----------------------3-5-2-----||
||o-3---3-----3---3-----3---------|-3---3---------3-----3-------4--o||
||--------------------------------|---------------------------------||


  E S S S S S S S S S S S S S S   E S S S S S S S S S S S S S S
|-------------------------------|--------------------------------|
|-------------------------------|-----------5-4------------------|
|---5---3-5---6---3-5-----------|---5---3-5-------6-5-------3-5--|
|-----------------------6-5-3-2-|-----------------------3-5------|
|-3---3-----3---3-----3---------|-3---3---------3-----3----------|
|-------------------------------|--------------------------------|


  E E S S S S S S S S S S E   E E S S S S S S S S S S E
|---------------------------|----------------------------|
|---------------------------|----------------------------|
|-----7h8---5h7---7h8---5h7-|-----7h8---5h7---7h8---5h7--|
|-0-0-----0-----0-----0-----|-0-0-----0-----0-----0------|
|---------------------------|----------------------------|
|---------------------------|----------------------------|


                                                      |-3-|
  E E S S S S S S S S S S E   E E S S S S S S S S S S S S S
|---------------------------|--------------------------------|
|---------------------------|--------------------------------|
|-----7h8---5h7---7h8---5h7-|--------------------------------|
|-0-0-----0-----0-----0-----|-0-0-7h8-0-5h7-0-7h8-0-3-3h5p3--|
|---------------------------|--------------------------------|
|---------------------------|--------------------------------|


  E E S S S S S S S S S S E   E E S S S S S S S S S S E
|---------------------------|----------------------------|
|---------------------------|----------------------------|
|-----7h8---5h7---7h8---5h7-|-----7h8---5h7---7h8---5h7--|
|-0-0-----0-----0-----0-----|-0-0-----0-----0-----0------|
|---------------------------|----------------------------|
|---------------------------|----------------------------|


  E E S S S S S S S S S S E   E E S S S  S  S S  S  S S  S  E
|---------------------------|----------------------------------|
|---------------------------|----------------------------------|
|-----7h8---5h7---7h8---5h7-|-----7h8---11h12---11h12---12p11--|
|-0-0-----0-----0-----0-----|-0-0-----0-------0-------0--------|
|---------------------------|----------------------------------|
|---------------------------|----------------------------------|


  S S S S S S S S S S S S S S S S   S S S S S S S S S S S S S S S S
|---------------------------------|---------------------------------|
|---------------------------------|---------------------------------|
|---------------------------------|-----------------------------7-8-|
|---------------------------------|-----------------------5-7-8-----|
|-3-5-6-3-6-3-5-6-3-6-3-5-6-3-----|-3-5-6-3-6-3-5-6-3-5-6-----------|
|-----------------------------6-3-|---------------------------------|


  E E S S S S E E E S S   S E S S S S S E S S S S E
|-----------------------|---------------------------|
|-----------------------|---------------------------|
|---------7-8-7---------|---------------------5-7-5-|
|-0-0-7-8-------0-0-8-7-|-5-4-------4-5---5-7-------|
|-----------------------|-----5-6-5-----5-----------|
|-----------------------|---------------------------|


  S S S S S S S S S S S S S S S S
|-----------------------------------|
|-----------------------------------|
|-----------------------------------|
|-----------------------------------|
|-3-5-6-3-6-3-5-6-3-6-3-5-6-3-------|
|-----------------------------6-3---|


                          |----6----|
  S S S S S S S S S S S S S S S S S S
|-------------------------------------|
|-------------------------------------|
|-------------------------------------|
|-----------------------3-5-6-5-3-----|
|-3-5-6-3-6-3-5-6-3-5-6-----------6-3-|
|-------------------------------------|


  Q.   S S +E  S S +Q     Q.   S S +E  S S +Q
|-----------------------|------------------------|
|-----------------------|------------------------|
|-----------------------|------------------------|
|-----------------------|------------------------|
|-4----4-4-(4)-4-4-(4)--|-1----1-1-(1)-1-1-(1)---|
|-----------------------|------------------------|


  S S S S S S S S S S S S S S S S   S S S S S S S S S S S S S S S S
|---------------------------------|---------------------------------|
|---------------------------------|---------------------------------|
|---------------------------------|---------------------------------|
|-3-3-3-3-3-3-3-3-3-3-3-3-3-3-3-3-|---------------------------------|
|---------------------------------|-4-4-4-4-4-4-4-4-4-4-4-4-4-4-4-4-|
|---------------------------------|---------------------------------|


   S S S S S S S S S S S S S S S S   H    H
|----------------------------------|-----------|
|----------------------------------|-----------|
|----------------------------------|-----------|
|-/8-8-8-8-8-8-8-8-8-8-8-8-8-8-8-8-|-----------|
|----------------------------------|------6----|
|----------------------------------|-4---------|


  S S S S S S S S S S S S S S S S   S S S S S S S S S S S S S S S S
|---------------------------------|---------------------------------|
|---------------------------------|---------------------------------|
|---------------------------------|---------------------------------|
|-3-3-3-3-3-3-3-3-3-3-3-3-3-3-3-3-|---------------------------------|
|---------------------------------|-4-4-4-4-4-4-4-4-4-4-4-4-4-4-4-4-|
|---------------------------------|---------------------------------|


   S S S S S S S S S S S S S S S S   H    H
|----------------------------------|-----------|
|----------------------------------|-----------|
|----------------------------------|-----------|
|-/8-8-8-8-8-8-8-8-8-8-8-8-8-8-8-8-|-----------|
|----------------------------------|-----------|
|----------------------------------|-4----3----|


  E. S E S   S  +E   S  S S  S  E   E.  S S S   E  +E   S  S S  E.
|---------------------------------|---------------------------------|
|---------------------------------|---------------------------------|
|----------/10-(10)-10-10-8-10-10-|-----------/10-(10)-10-10-8-10---|
|-3--3-3-3------------------------|-3---3-3-3-----------------------|
|---------------------------------|---------------------------------|
|---------------------------------|---------------------------------|


  E. S S S E +E  S S E E    E. S E E +E  S S S S E
|-------------------------|------------------------|
|-------------------------|------------------------|
|----------7-(7)-----7----|------------------------|
|-------------------------|------------------------|
|-5--5-5-5-------5-5---5\-|-4--4-4-4-(4)-4-4-4-4-4-|
|-------------------------|------------------------|


  E. S S S E +E  S S S S E    E. S S S E +E  S S S S E
|---------------------------|---------------------------|
|---------------------------|---------------------------|
|---------------------------|---------------------------|
|-8--8-8-8-8-(8)-8-8-8-8-8--|---------------------------|
|---------------------------|-9--9-9-9-9-(9)-9-9-9-9-9--|
|---------------------------|---------------------------|


                              ~~~~~~~
  E. S S S E +E  S S S S E    H    H
|---------------------------|-----------|
|---------------------------|-----------|
|---------------------------|-----------|
|---------------------------|-----------|
|-6--6-6-6-6-(6)-6-6-6-6-6--|-3---------|
|---------------------------|------5----|


  E E S S S S S S S S S S E   E E S S S S S S S S S S E
|---------------------------|----------------------------|
|---------------------------|----------------------------|
|---------------------------|----------------------------|
|-----5h6---3h5---5h6---3h5-|-----5h6---3h5---5h6---3h5--|
|---------------------------|----------------------------|
|-3-3-----3-----3-----3-----|-3-3-----3-----3-----3------|


                                                      |-3-|
  E E S S S S S S S S S S E   E E S S S S S S S S S S S S S
|---------------------------|--------------------------------|
|---------------------------|--------------------------------|
|---------------------------|--------------------------------|
|-----5h6---3h5---5h6---3h5-|--------------------------------|
|---------------------------|-----5h6---3h5---5h6---1-1h3p1--|
|-3-3-----3-----3-----3-----|-3-3-----3-----3-----3----------|


  E E S S S S S S S S S S E   E E S S S S S S S S S S E
|---------------------------|----------------------------|
|---------------------------|----------------------------|
|---------------------------|----------------------------|
|-----5h6---3h5---5h6---3h5-|-----5h6---3h5---5h6---3h5--|
|---------------------------|----------------------------|
|-3-3-----3-----3-----3-----|-3-3-----3-----3-----3------|


  E E S S S S S S S S S S E   E E S S S S S S S S S S E
|---------------------------|----------------------------|
|---------------------------|----------------------------|
|---------------------------|-----------4h5---4h5---5p4--|
|-----5h6---3h5---5h6---3h5-|-----5h6--------------------|
|---------------------------|----------------------------|
|-3-3-----3-----3-----3-----|-3-3-----3-----3-----3------|


    E E S S S S S S S S S S E   E E S S S S S S S S S S E
||----------------------------|---------------------------|
||o-----7h8---5h7---7h8---5h7-|-----7h8---5h7---7h8---5h7-|
||--0-0-----0-----0-----0-----|-0-0-----0-----0-----0-----|
||----------------------------|---------------------------|
||o---------------------------|---------------------------|
||----------------------------|---------------------------|


  E E S S S S S S S S S S E   E S S E S S S S S S +Q
|---------------------------|---------------------------||
|-----7h8---5h7---7h8---5h7-|-------5---3h5------------o||
|-0-0-----0-----0-----0-----|---------------------------||
|---------------------------|-3-3-3---3-----3-3-3-(3)---||
|---------------------------|--------------------------o||
|---------------------------|---------------------------||


  Q=129
 7/8                                    4/4
  E  Q  H      E  Q  H      E  Q  H      E  E Q  Q  S S S S
|------------|------------|------------|---------------------|
|------------|------------|------------|---------------------|
|------------|------------|------------|---------------------|
|------------|------------|------------|------------6-5-3----|
|------------|------------|------------|---------------------|
|-3\---------|-3\---------|-3\---------|-3\------------------|


 7/8                                    4/4
  Q  Q  Q  E   Q  Q  Q  E   Q  Q  Q  E   Q  Q  Q  S S S S
|------------|------------|------------|-------------------|
|----7-----7-|----7-----7-|----7-----7-|----7--------------|
|-0-----0----|-0-----0----|-0-----0----|-0-----0-----------|
|------------|------------|------------|----------6-5-3----|
|------------|------------|------------|-------------------|
|------------|------------|------------|-------------------|


 7/8
  Q  Q  Q  E   Q  Q  Q  E   Q  Q  Q  E   Q  Q  Q  S S
|------------|------------|------------|----------------|
|----7-----7-|----7-----7-|----7-----7-|----7-----------|
|-0-----0----|-0-----0----|-0-----0----|-0-----0--------|
|------------|------------|------------|----------6-5---|
|------------|------------|------------|----------------|
|------------|------------|------------|----------------|


 4/4                                         7/8
  e. S S S E S e S q    e. S S S E S e S q    Q  Q  Q  E   Q  Q  Q  E
|---------------------|---------------------|------------|--------------|
|----------5---5-5----|----------5---5-5----|----7-----7-|----7-----7---|
|---------------------|---------------------|-0-----0----|-0-----0------|
|-3--3---3---------3--|-3--3---3---------3--|------------|--------------|
|---------------------|---------------------|------------|--------------|
|---------------------|---------------------|------------|--------------|


                             6/4
  Q  Q  Q  E   Q  Q  Q  S S   e. S S S E S e S q  e e e e
|------------|--------------|------------------------------|
|----7-----7-|----7---------|----------5---5-5--------5-5--|
|-0-----0----|-0-----0------|------------------------------|
|------------|----------6-5-|-3--3---3---------3--3-3------|
|------------|--------------|------------------------------|
|------------|--------------|------------------------------|


                               7/16            4/4
  e. S S S E S e S e e e e q    S S S S S S S   Q  Q  Q  Q
|-----------------------------|---------------|-------------|
|----------5---5-5-----5-5----|---------------|-------------|
|-----------------------------|-----4-5-4-----|-------------|
|-3--3---3---------3-3-----3--|-5-6-------6-5-|-------------|
|-----------------------------|---------------|-------------|
|-----------------------------|---------------|-3--3--3--3--|


 3/16    4/4           3/16    4/4
  S S S   Q  Q  Q  Q    S S S   S S S S +S  S S S S S S S S S S S
|-------|-------------|-------|------------------------------------|
|-------|-------------|-------|------------------------------------|
|-------|-------------|-------|------------------------------------|
|-------|-------------|-5-3---|-----3-5-(5)-3-------3-5-6-5-3------|
|-3-----|-------------|-----6-|-5-6-----------6-5-6-----------6-5--|
|---6-4-|-3--3--3--3--|-------|------------------------------------|


 3/16    4/4                                 4/16
  S S S   S S S S +S  S S S S S S S S S S S   S S S S   S S S S
|-------|-----------------------------------|---------|---------|
|-------|-----------------------------------|---------|---------|
|-------|-----------------------------------|---------|---------|
|-5-3---|-----3-5-(5)-3-------3-5-6-5-3-----|-5-3-----|---4-5-6-|
|-----6-|-5-6-----------6-5-6-----------6-5-|-----6-5-|-6-------|
|-------|-----------------------------------|---------|---------|


 4/4                                 3/16
  S S S S +S  S S S S S S S S S S S   S S S
|-----------------------------------|-------|
|-----------------------------------|-------|
|-----4-5-(5)-4-------4-5-7-5-4-----|-5-4---|
|-5-6-----------6-5-6-----------6-5-|-----6-|
|-----------------------------------|-------|
|-----------------------------------|-------|


 4/4
  S S S S +S  S S S S S S S S S S S
|------------------------------------|
|------------------------------------|
|-----4-5-(5)-4-------4-5-7-5-4------|
|-5-6-----------6-5-6-----------6-5--|
|------------------------------------|
|------------------------------------|


 3/16      2/4
  S  S  S   S  S  S  S S  S  S  S
|---------|-----------------------|
|---------|-----------------------|
|-5--4----|-------4--5----4--5--7-|
|-------6-|-5--6-------6----------|
|---------|-----------------------|
|---------|-----------------------|


 6/16               4/4
  S  S  S S  S  S      W         +W         W
|------------------|--------|-----------|--------*|
|------------------|---5----|----(5)----|--------*|
|-4--5--7-5--7--8--|--------|-----------|--------*|
|------------------|--------|-----------|--------*|
|------------------|--------|-----------|--------*|
|------------------|--------|-----------|---3----*|


7. Dance Of Eternity

Gtr I (B E A D G C) -

    Q=109                   Q=124
   4/4                                           7/8
    Gtr I
    |-3-|           |-3-|
    S S S E E E E E S S S E  8x H    +E  E +Q     H    +E  Q
||---------------------------||-----------------|-------------|
||o-------------------------o||-----------------|-------------|
||---------------------------||-----------------|-------------|
||---------------------------||-----------------|-------------|
||o-------------------------o||-3----(3)-4-(4)--|-3----(3)-1--|
||--3-3-3-3-x-3-x-3-3-3-3-3--||-----------------|-------------|


 3/4                   4/4               7/8
  H.        Q.   Q.     H    +E  E +Q     H    +E  Q
|---------|-----------|-----------------|-------------|
|---------|-----------|-----------------|-------------|
|---------|-----------|-----------------|-------------|
|---------|-----------|-----------------|-------------|
|-0-------|------2----|-3----(3)-4-(4)--|-3----(3)-1--|
|---------|-1---------|-----------------|-------------|


 3/4                   4/4               7/8
  H.        Q.   Q.     E E E E E E E E   E E E S S E E E
|---------|-----------|-----------------|------------------|
|---------|-----------|-----------------|------------------|
|---------|-----------|-----5---3-6-5---|---------3-5------|
|---------|-----------|---5---5-------6-|-5---5-6-----3----|
|-0-------|-----------|-3---------------|---3-----------1--|
|---------|-1----4----|-----------------|------------------|


 3/4           7/8             4/4               7/8
  E E E E E E   E E E E E E E   E E E E E E E E   E E E S S E E E
|-------------|---------------|-----------------|------------------|
|-----------4-|-5---------1---|-----------------|------------------|
|-----2-3-2---|-----5---------|-----5---3-6-5---|---------3-5------|
|---2---------|---3---4-------|---5---5-------6-|-5---5-6-----3----|
|-0-----------|---------2---4-|-3---------------|---3-----------1--|
|-------------|---------------|-----------------|------------------|


 3/4           7/8                 13/16
                  |-3-|
  E E E E E E   E S S S E E E E E   E S E S S S S S S S S
|-------------|-------------------|------------------------|
|-----------4-|-5-----------------|------------------------|
|-----2-3-2---|-------3-5---------|-----------------3-5-6--|
|---2---------|---3-6-----6-------|-------------3-5--------|
|-0-----------|---------------6-4-|-3-4-3-4-3-4------------|
|-------------|-------------4-----|------------------------|


 15/16                     17/16
  E S E S E S S S S S S S   E S E S E E S S S S S S S
|-------------------------|---------------------------|
|-------------------------|---------------------------|
|-------------------------|---------------------3-5-6-|
|-----------5-3-----------|-----------------3-5-------|
|-3-4-3-4-3-----3-2-------|-3-4-3-4-3-4-3-4-----------|
|-------------------6-4-3-|---------------------------|


 14/16                     4/4               7/8
  E S E S S S S S S S S S   H    +E  E +Q     H    +E  Q
|-------------------------|-----------------|-------------|
|-------------------------|-----------------|-------------|
|-------------------------|-----------------|-------------|
|-------------5-3---------|-----------------|-------------|
|-3-4-3-4-3-4-----3-2-----|-----------------|-------------|
|---------------------6-4-|-3----(3)-4-(4)--|-3----(3)-1--|


 3/4                   4/4               7/8
  H.        Q.   Q.     H    +E  E +Q     H    +E  Q
|---------|-----------|-----------------|-------------|
|---------|-----------|-----------------|-------------|
|---------|-----------|-----------------|-------------|
|---------|-----------|-----------------|-------------|
|---------|-3---------|-----------------|-------------|
|-0-------|------2----|-3----(3)-4-(4)--|-3----(3)-1--|


 4/4        5/4           17/16
  W          q  W          E S E S E E S S S S S S S
|----------|-------------|----------------------------|
|----------|-------------|----------------------------|
|----------|-------------|---------------------3-5-6--|
|----------|-------------|-----------------3-5--------|
|-4--------|-3-----------|-3-4-3-4-3-4-3-4------------|
|----------|-------------|----------------------------|


 15/16                     13/16
  E S E S E S S S S S S S   E S E S S S S S S S S
|-------------------------|-----------------------|
|-------------------------|-----------------------|
|-------------------------|-----------------3-5-6-|
|-----------5-3-----------|-------------3-5-------|
|-3-4-3-4-3-----3-2-------|-3-4-3-4-3-4-----------|
|-------------------6-4-3-|-----------------------|


 4/4                3/4
  Q  +E  E +Q   Q    S S  S  S  +S   S  E  E  E   H.
|------------------|-----------------------------|-------|
|------------------|---------16-(16)-------10-12-|-------|
|------------------|------14------------10-------|-------|
|------------------|-----------------12----------|-------|
|-6--(6)-4-(4)-----|-0-12------------------------|-------|
|---------------3--|-----------------------------|-------|
                          T  T       H  H  H  T

 5/4                               2/4
  S S S S S S S S S S S S E E E E   S S S S S S S S
|---------------------------------|-----------------|
|---------------------------------|-------7-3-------|
|-------4-4-4-------4-4-4---4-5---|-----6-----4-----|
|-------------------------4-----3-|---5---------5---|
|-2-2-2-------2-2-2---------------|-4-------------6-|
|---------------------------------|-----------------|


 5/4                               2/4
  S S S S S S S S S S S S E E E E   S S S S S S S S
|---------------------------------|-----------------|
|---------------------------------|-7-----3---------|
|-------4-4-4-------4-4-4---4-5---|---6-----4---5---|
|-------------------------4-----3-|-----5-----5---4-|
|-2-2-2-------2-2-2---------------|-----------------|
|---------------------------------|-----------------|


 5/4                               2/4
  S S S S S S S S S S S S E E E E   S S S S S S S S
|---------------------------------|-----------------|
|---------------------------------|-------7-9-------|
|-------4-4-4-------4-4-4---4-5---|-----8-----6-----|
|-------------------------4-----3-|---7---------5---|
|-2-2-2-------2-2-2---------------|-6-------------4-|
|---------------------------------|-----------------|


 5/4                               5/8
                                    |-3-| |-3-|   |-3-| |-3-|
  S S S S S S S S S S S S E E E E   S S S S S S e S S S S S S
|---------------------------------|----------------------------|
|---------------------------------|----------------------------|
|-------4-4-4-------4-4-4---4-5---|----------------------------|
|-------------------------4-----3-|-0--------------------------|
|-2-2-2-------2-2-2---------------|---4-4-3-3-2-1-0------------|
|---------------------------------|-----------------4-4-3-2-1--|


   11/4
  S S S S S S S S S S S S S S S S S S S S S S S S S S S S S S S S S S S S S S S S S S S S
|---------------------------------------------------------------------------------------|
|o-------------------------------------------------------------------------------------o|
|---------------------------------------------------------------------------------------|
|---------------------------------------------------------------------------------------|
|o-------------------------------------------------------------------------------------o|
|-0-0-0-0---0-0-0-0---0-0-0-0---0-0-0-0---0-0-0-0---0-0-0-0---0-0-0-0---0-0-0-0---0-0-0-|


  S S S S S S S S S S S S S S S S S S S S S S S S S S S S S S S S S S S S S S S S S S S S
|----------------------------------------------------------------------------------------|
|----------------------------------------------------------------------------------------|
|----------------------------------------------------------------------------------------|
|----------------------------------------------------------------------------------------|
|-7-7-7-7---7-7-7-7---7-7-7-7---7-7-7-7---7-7-7-7---7-7-7-7---7-7-7-7---7-7-7-7---7-7-7--|
|----------------------------------------------------------------------------------------|


  Q=95
 4/4                                       3/4
  |---6---| |---6---| |---6---| |---6---|   |---6---| |---6---| |---6---|
  S S S S E S S S S E S S S S E S S S S E   S S S S E S S S S E S S S S E
|-----------------------------------------|--------------------------------|
|-----------------------------------------|--------------------------------|
|-----------------------------------------|--------------------------------|
|-----------------------------------------|--------------------------------|
|-7-7-7-7---7-7-7-7---7-7-7-7---7-7-7-7---|-7-7-7-7---7-7-7-7---7-7-7-7----|
|-----------------------------------------|--------------------------------|


  Q=120
 2/4             5/4
  |---6---|
  S S S S E Q     S S S S S S S S S S S S S S S S S S S S
|---------------|-----------------------------------------|
|---------------|-----------------------------------------|
|---------------|-----------------------------------------|
|---------------|-----------------------------------------|
|-7-7-7-7---7\--|-0-0-0-0---0-0-0-0---0-0-0-0---0-0-0-0---|
|---------------|-----------------------------------------|


 6/4
  S S S S S S S S S S S S S S S S S S S S S S S S
|-------------------------------------------------|
|-------------------------------------------------|
|-------------------------------------------------|
|-------------------------------------------------|
|-0-0-0-0---0-0-0-0---0-0-0-0---0-0-0-0---0-0-0---|
|-------------------------------------------------|


 5/4
  S S S S S S S S S S S S S S S S S S S S
|-----------------------------------------|
|-----------------------------------------|
|-------------------------------7-7-7-7---|
|-7-7-7-7---7-7-7-7---9-9-9-9-------------|
|-----------------------------------------|
|-----------------------------------------|


 6/4
  S S S S S S S S S S S S S S S S S S S S S S S S
|----------------------------------------------------|
|----------------------------------------------------|
|-----------------------------------------7-7-7------|
|-7-7-7-7---7-7-7-7---9-9-9-9---9-9-9-9--------------|
|----------------------------------------------------|
|----------------------------------------------------|


 4/4
  S S S S S S S  S S S S S S S S S   Q  Q  Q  Q
|----------------------------------|-------------|
|----------------------------------|-------------|
|----------------------------------|-------------|
|-7-----6--------------------------|-------------|
|---7-0---7-0---10-9-0-8-7-0-6-5---|-9-----8-----|
|--------------------------------7-|----8-----7--|


  S S S S S S S  S S S S S S S S S   S S S S S S S S S S S S S S S S
|----------------------------------|-----------------------------------|
|----------------------------------|-----------------------------------|
|----------------------------------|-5---------------------------------|
|-7-----6--------------------------|-------6-7-------------------------|
|---7-0---7-0---10-9-0-8-7-0-6-5---|---8-9-----5-6-8-9-----5-6-5-------|
|--------------------------------7-|-------------------7-8-------8-7---|


  S S S S S S S  S S S S S S S S S   S S S S S S S S S S S  S S S S S
|----------------------------------|------------------------------------|
|----------------------------------|------------------------------------|
|----------------------------------|------------------------------------|
|-7-----6--------------------------|--------------------------6---6-9---|
|---7-0---7-0---10-9-0-8-7-0-6-5---|---------------5-7-8-9-10---7-------|
|--------------------------------7-|-8-7-5-7-4-7-8----------------------|


  S S S S S S S  S S S S S S S S S   e e s e S +H
|----------------------------------|-------------------|
|----------------------------------|-------------------|
|----------------------------------|-------------------|
|-7-----6--------------------------|-------------------|
|---7-0---7-0---10-9-0-8-7-0-6-5---|-8-8-8-8-7-(7)\----|
|--------------------------------7-|-------------------|


  E E E S S S E S E E   E E S E S +S  S E E E
|---------------------|-----------------------|
|---------------------|-----------------------|
|---------------------|-----------------------|
|---------------------|-----------------------|
|-0-0-----0---0-0-----|-----------------------|
|-----0-0---------0-0-|-2-2-1-1-0-(0)-0-0-3-4-|


  E E E S S S E S E E   E E S E S +S  S E E E
|---------------------|-----------------------|
|---------------------|-----------------------|
|---------------------|-----------------------|
|---------------------|-----------------------|
|-0-0-----0---0-0-----|-2-2-2-2---------3-2-1-|
|-----0-0---------0-0-|---------0-(0)-0-------|


  Q  Q  E. S S E S   E E S E S +S  S E E E
|------------------|------------------------|
|------------------|------------------------|
|------------------|------------------------|
|------------------|------------------------|
|-0----------------|------------------------|
|----4--3--2---2---|-1-1-1-1-0-(0)-0-0-3-4--|


  Q  Q  E. S S E.   S E. E. S +E  E +S  E.   q  H.
|-----------------|------------------------|----------|
|-----------------|------------------------|----------|
|-----------------|------------------------|----------|
|-----------------|------------------------|----------|
|-0--2--3--4---4--|---5--5--5-(5)-5-(5)-5--|-7--------|
|-----------------|------------------------|----------|


    S S S S S S S S S S S S S S S S   S S S S S S S S S S S S S S S S
||----------------------------------|----------------------------------|
||o---------------------------------|----------------------------------|
||--2-2-2-2-2-2-2-2-2-2-2-2-2-2-2-2-|-0-0-0-0-0-0-0-0-0-0-0-0-0-0-0-0--|
||----------------------------------|----------------------------------|
||o---------------------------------|----------------------------------|
||----------------------------------|----------------------------------|


  S S S S S S S S S S S S S S S S   S S S S S S S S S S S S S S S S
|---------------------------------|------------------------------------||
|---------------------------------|-----------------------------------o||
|---------------------------------|------------------------------------||
|-0-0-0-0-0-0-0-0-0-0-0-0-0-0-0-0-|------------------------------------||
|---------------------------------|-1-1-1-1-1-1-1-1-1-1-1-1-1-1-1-1---o||
|---------------------------------|------------------------------------||


  S S S S S S S S S S S S S S S S   S S S S S S S S S S S S S S S S
|---------------------------------|---------------------------------|
|---------------------------------|---------------------------------|
|---------------------------------|---------------------------------|
|---------------------------------|---------------------------------|
|-0-0-0-0-0-0-0-0-0-0-0-0-0-0-0-0-|-1-1-1-1-1-1-1-1-3-3-3-3-3-3-3-3-|
|---------------------------------|---------------------------------|


   |------6-------|  |------6-------|  |------6-------|  |------6-------|
   S  S  S  S  S  S  S  S  S  S  S  S  S  S  S  S  S  S  S  S  S  S  S  S
|--------------------------------------------------------------------------|
|--------------------------------------------------------------------------|
|-------------------------------------------------------10-10--------------|
|-10-10-12-12-12-12-10-10-12-12-12-12-10-10-12-12-12-12-------12-12-12-12--|
|--------------------------------------------------------------------------|
|--------------------------------------------------------------------------|


   |--------6----|  |---------6----|  |--------6------|  |--------6------|
   S S  S  S  S  S  S  S  S  S  S  S  S  S  S  S   S  S  S  S  S  S  S  S
|--------------------------------------------------------------------------|
|--------------------------------------------------------------------------|
|----------10-12-13-14-12-10-------------------10-12-14-15-15-14-12-10-----|
|-10-12-14-------------------14-13-12-10-12-14-------------------------14--|
|--------------------------------------------------------------------------|
|--------------------------------------------------------------------------|

Note's are less important here, simply slide up the string whilst
playing sextuplet sixteenth notes with right hand.

   |--------6-----|   |--------6----|  |--------6-----|  |--------6-----|
   S  S  S  S  S  S  S  S  S  S  S  S  S  S  S  S  S  S  S  S  S  S  S  S
|-------------------------------------------------------------------------|
|-------------------------------------------------------------------------|
|-------10-12-14-16-17-17-16----------------------------------------------|
|-10-12----------------------19-17-15-10-12-17-19-21-22-23-23-22-19-17-15-|
|-------------------------------------------------------------------------|
|-------------------------------------------------------------------------|


                          ~~~~
   |--------6---------|             |------6------|  |------6-------|
   S  S   S   S   S   S   E.  T  T  S  S  S  S S  S  S  S  S  S  S  S
|---------------------------------------------------------------------|
|-------------------------------------19--0----0-19-21-22-21-19-------|
|----------------------------19-19-21----21-22------------------22-21-|
|-10-12-/17-/19-/21-/22-/24-------------------------------------------|
|---------------------------------------------------------------------|
|---------------------------------------------------------------------|


   |------6-------|  |------6-------|  |------6-------|  |------6-------|
   S  S  S  S  S  S  S  S  S  S  S  S  S  S  S  S  S  S  S  S  S  S  S  S
|-------------------------------------------------------------------------|
|-------------------------------------------------------------------------|
|-19-------------------19-------------------------------------------------|
|----22-21-20-19-20-22----22-21-20-19----------------------19-------------|
|-------------------------------------22-21-20-19-20-21-22----22-21-20-19-|
|-------------------------------------------------------------------------|


   |------6-------|  |-----6------|  |------6------|  |-----5------|
   S  S  S  S  S  S  S  S  S  S S S  S  S  S S  S  S  S  S  S   S  S
|---------------------------------x-16-18-17-x-----------------------|
|-------------------------16-17----------------17-17-16--------------|
|-------------------17-19-------------------------------19-17--------|
|----------17-19-20--------------------------------------------20-19-|
|-17-19-20-----------------------------------------------------------|
|--------------------------------------------------------------------|


                                       3/4
   S  E.  Q    S  S  S  S  S  S  S  S    +S   S  S  S  S  S  S  S  Q
|-------------------------------------|-------------------------------|
|-------------------------------------|-------------------------------|
|-------------------------------------|---------12-12-14-14-16-16-14--|
|-17----------12-12-14-12-12-14-14-15-|-(15)-15-------15-15-17-17-15--|
|----20--19\--------------------------|-------------------------------|
|-------------------------------------|-------------------------------|


   4/4
    E S S E S S +S  S E S S S S
||------------------------------|
||o-----------------------------|
||------------------------------|
||------------------------------|
||o-5-------5-7-(7)-------------|
||----8-6-5---------8-5-6-8-6-5-|


  E S S E S S +S  S E S S S S   E S S E S S +S  S E S S S S
|-----------------------------|------------------------------|
|-----------------------------|------------------------------|
|-----------------------------|------------------------------|
|---------------------5-7-5-7-|------------------------------|
|-5-------7-8-(8)-------------|-5-------5-7-(7)--------------|
|---8-6-5---------8-5---------|---8-6-5---------8-5-6-8-6-5--|


  S S E S S S S S S S S +E  S S         S S S S S S S S S S S S S S S S   4x
|--------------------------------||-||------------------------------------||
|-------------------------------o||-||o----------------------------------o||
|--------------------------------||-||------------------------------------||
|-------------5-7---8-7-(7)------||-||------------------------------------||
|---5-7---------------------8-7-o||-||o-5-0-3-1-0-0-5-7-0-3-0-0-1-3-1-0--o||
|-------8-5----------------------||-||------------------------------------||


  S S S S S S S S S S S S S S S S   S S S S S S S S S S S S S S S S
|---------------------------------|-----------------------------------|
|---------------------------------|-----------------------------------|
|---------------------------------|-----------------------------------|
|---------------------------------|-------------------------5-7-5-7---|
|-5-0-3-1-0-0-5-7-0-3-0-0-1-3-1-0-|-5-0-3-1-0-0-7-8-0-3-0-0-----------|
|---------------------------------|-----------------------------------|


  S S S S S S S S S S S S S S S S   S S S S S S S S S S S S +E  S S
|---------------------------------|----------------------------------|
|---------------------------------|----------------------------------|
|---------------------------------|----------------------------------|
|---------------------------------|---------------5-7---8-7-(7)-8-7--|
|-5-0-3-1-0-0-5-7-0-3-0-0-1-3-1-0-|-0-5-7-0-3-0-0--------------------|
|---------------------------------|----------------------------------|


    S S S S S S S S S S S S S S S S  4x S S S S S S S S S S S S S S S S
||-----------------------------------||----------------------------------|
||o---------------------------------o||----------------------------------|
||-----------------------------------||----------------------------------|
||--5-0-3-2-0-0-5-7-0-3-0-0-2-3-2-0--||-5-0-3-2-0-0-5-7-0-3-0-0-2-3-2-0--|
||o---------------------------------o||----------------------------------|
||-----------------------------------||----------------------------------|


  S S S S S S S S S S S S S S S S   S S S S S S S S S S S S S S S S
|---------------------------------|---------------------------------|
|---------------------------------|---------------------------------|
|---------------7-5---5-----------|---------------------------------|
|-5-0-3-2-0-0-5-----7---7-5-7-5---|-5-0-3-2-0-0-5-7-0-3-0-0-2-3-2-0-|
|-------------------------------8-|---------------------------------|
|---------------------------------|---------------------------------|


  S S S S S S S S S S S S S S S S   S S S S S S S S S S S S S S S S
|---------------------------------|---------------------------------|
|---------------------------------|---------------------------------|
|---------------7---5-------------|---------------------------------|
|-5-0-3-2-0-0-5---------7---------|-5-0-3-2-0-0-5-7-0-3-0-0-2-3-2-0-|
|---------------------------8-7-5-|---------------------------------|
|---------------------------------|---------------------------------|


  S S S S S S S S S S S S S S S S   S S S S S S S  S S S S S S S S S
|---------------------------------|----------------------------------|
|---------------------------------|----------------------------------|
|---------------------------------|----------------------------------|
|-7-0-5-3-0-0-7-8-0-5-0-0-3-5-3-0-|-8-0-7-5-0-0-8-10-0-7-0-0-5-7-5-0-|
|---------------------------------|----------------------------------|
|---------------------------------|----------------------------------|


                                      7/16
   S S S S S S  S  S S S S S S S S S    S S  S S S S  S    S S  S  S S S  S
|------------------------------------|------------------|---------------------|
|------------------------------------|------------------|---------------------|
|------------------------------------|------------------|---------------------|
|-10-0-8-7-0-0-10-12-0-8-0-0-7-8-7-0-|-12-0-10-8-0-0-12-|-14-0-12-10-0-0-14---|
|------------------------------------|------------------|---------------------|
|------------------------------------|------------------|---------------------|


   S S  S  S S S  S    S S  S  S S S  S
|-------------------|-------------------|
|-------------------|-------------------|
|-------------------|-------------------|
|-15-0-14-12-0-0-15-|-17-0-15-14-0-0-17-|
|-------------------|-------------------|
|-------------------|-------------------|


 6/16
   S S  S  S S  S    S S  S  S S  S    S S  S  S S  S
|-----------------|-----------------|-------------------|
|-----------------|-----------------|-------------------|
|-----------------|-----------------|-------------------|
|-19-0-17-15-0-19-|-20-0-19-17-0-20-|-22-0-20-19-0-22---|
|-----------------|-----------------|-------------------|
|-----------------|-----------------|-------------------|


                                   7/16
   S S  S  S S  S    S S  S  E  S   S S S S S S S
|-----------------|---------------|---------------|
|-----------------|---------------|---------------|
|-----------------|---------------|---------------|
|-24-0-22-24-0-22-|-24-0-22-24\---|-------------8-|
|-----------------|---------------|-----8-7-7-8---|
|-----------------|-------------x-|-5-6-----------|


  S S  S S S  S  S   S  S  S  S  S  S  S
|------------------|------12-11-11-12-17---|
|---------------10-|-9-10------------------|
|-----10-9-9-10----|-----------------------|
|-7-8--------------|-----------------------|
|------------------|-----------------------|
|------------------|-----------------------|


                Q=175
 4/4             5/8                         7/8
   W               E E  E E E    E E  E E E    E E  E E  E E E
|-16tr17--------|-------------|-------------|-------------------|
|---------------|-------------|-------------|-------------------|
|---------------|-------------|-------------|-------------------|
|---------------|-12-0-12-0-0-|-12-0-12-0-0-|-12-0-12-0-12-0-0--|
|---------------|-------------|-------------|-------------------|
|---------------|-------------|-------------|-------------------|


 5/8           7/8                5/8
   E E  E E E    E E  E E  E E E    E E  E E E
|-------------|------------------|-------------|
|-------------|------------------|-------------|
|-------------|------------------|-------------|
|-12-0-12-0-0-|-12-0-12-0-12-0-0-|-12-0-12-0-0-|
|-------------|------------------|-------------|
|-------------|------------------|-------------|


               7/8
   E E  E E E    E E  E E  E E E
|-------------|-------------------|
|-------------|-------------------|
|-------------|-------------------|
|-12-0-12-0-0-|-12-0-12-0-12-0-0--|
|-------------|-------------------|
|-------------|-------------------|


                                          Q=124
 5/4                                       4/4
   h  q +E  E +Q       q Q   q  +E  E +q    H    +E  E +Q
|--------------------|--------------------|----------------|
|--------------------|--------------------|----------------|
|--------------------|--------------------|----------------|
|-12--8-(8)----------|------12-(12)-8-(8)-|----------------|
|-----------8-(8)\---|-5------------------|-3----(3)-4-(4)-|
|--------------------|--------------------|----------------|


 7/8           3/4                   4/4
  H    +E  Q    H.        Q.   Q.     H    +E  E +Q
|-------------|---------|-----------|-----------------|
|-------------|---------|-----------|-----------------|
|-------------|---------|-----------|-----------------|
|-------------|---------|-----------|-----------------|
|-3----(3)-1--|-0-------|------2----|-3----(3)-4-(4)--|
|-------------|---------|-1---------|-----------------|


              Q.=124
 7/8             9/8            15/8
  H    +E  Q      H.      Q.     H.      q.   q.   q.
|-------------||---------------|-------------------------|
|-------------||o--------------|-------------------------|
|-------------||--2-------3----|-0-----------------------|
|-------------||---------------|---------4----0----------|
|-3----(3)-1--||o--------------|-------------------1-----|
|-------------||---------------|-------------------------|


 9/8            6/8   15/8                           9/8
  H.      Q.     H.       Q.   +Q    Q.    H  Q.          H.      Q.
|--------------|-----|-----------------------------||-||----------------|
|--------------|-----|----------------------------o||-||o---------------|
|-2-------3----|-0---|-----------------------------||-||--2-------3-----|
|--------------|-----|----4----(4)---0-------------||-||----------------|
|--------------|-----|---------------------4--2---o||-||o---------------|
|--------------|-----|-----------------------------||-||----------------|


 12/8                6/8         4/4
  Q.   Q.   H.        Q.   Q.     q  q  q  q
|-------------------|-----------|--------------||
|-------------------|-----------|-------------o||
|-0-----------------|-2----3----|-0------------||
|------4----0-------|-----------|----4--0--1---||
|-------------------|-----------|-------------o||
|-------------------|-----------|--------------||


  Q=115
 3/4
   S  S  S  S  S  S  S  S  S  S  S  S
|-------------------------------------|
|-------------------------------------|
|----------13----12-------------------|
|-------11----11----13-14-14-15-11-12-|
|-12-14-------------------------------|
|-------------------------------------|


 4/4
   S  S  S  S  S  S  S  S  S  S  S  S  S  S  S  S
|--------------------------------------------------|
|--------------------------------------------------|
|----------13----12--------------------------------|
|-------11----11----13-14-14-15-11-12-13-14-10-11--|
|-12-14--------------------------------------------|
|--------------------------------------------------|


 3/4
   S  S  S  S  S  S  S  S  S  S  S  S
|-------------------------------------|
|-------------------------------------|
|----------13----12-------------------|
|-------11----11----13-14-14-15-11-12-|
|-12-14-------------------------------|
|-------------------------------------|


 4/4
   S  S  S  S  S  S  S  S  S  S  S  S  S  S  S  S
|--------------------------------------------------|
|----------------------------------------11-12-13--|
|----------13----12----------11-12-13-14-----------|
|-------11----11----13-14-15-----------------------|
|-12-14--------------------------------------------|
|--------------------------------------------------|


 3/4                                   5/8
   S  S  S  S  S  S  S  S  S  S  S  S    S  S  S  S  S  S  S  S  S  S
|-------------------------------------|-------------------------------|
|-------------------------------------|-------------------------------|
|----------13----12-------------------|----------13----12-------------|
|-------11----11----13-14-14-15-11-12-|-------11----11----14-15-11-12-|
|-12-14-------------------------------|-12-14-------------------------|
|-------------------------------------|-------------------------------|


 3/4
   S  S  S  S  S  S  S  S  S  S  S  S
|---------------------------------------|
|---------------------------------------|
|----------13----12---------------------|
|-------11----11----13-14-14-15-11-12---|
|-12-14---------------------------------|
|---------------------------------------|


 7/8
   S  S  S  S  S  S  S  S  S  S  S  S  S  S
|-------------------------------------------|
|-------------------------------------------|
|----------13----12-------------------------|
|-------11----11----14-15-11-12-13-14-10-11-|
|-12-14-------------------------------------|
|-------------------------------------------|


 5/16
   S  S  S  S S    S  S  S  S S    S  S  S  S S
|---------------|---------------|----------------|
|---------------|---------------|----------------|
|---------------|---------------|----------------|
|-14-11-13-11---|-14-11-13-11---|-14-11-13-11----|
|-------------0-|-------------0-|-------------0--|
|---------------|---------------|----------------|


 6/16               3/4
   S  S  S S  S  S   S S S S S S S S S S S S
|------------------|-------------------------|
|------------------|-------------------------|
|----------9-11-12-|-------------------------|
|-10-11-13---------|-------6---5-------------|
|------------------|-----4---4---6-7-7-8-4-5-|
|------------------|-5-7---------------------|


 4/4
  S S S S S S S S S S S S S S S S
|-----------------------------------|
|-----------------------------------|
|-----------------------------------|
|-------6---5-----------------------|
|-----4---4---6-7-7-8-4-5-6-7-3-4---|
|-5-7-------------------------------|


 3/4                       4/4
  S S S S S S S S S S S S   S S S S S S S S S S S S S S S S
|-------------------------|----------------------------------|
|-------------------------|----------------------------------|
|-------------------------|---------------------------4-5-6--|
|-------6---5-------------|-------6---5-------4-5-6-7--------|
|-----4---4---6-7-7-8-4-5-|-----4---4---6-7-8----------------|
|-5-7---------------------|-5-7------------------------------|


 3/4                       5/8                   3/4
  S S S S S S S S S S S S   S S S S S S S S S S   S S S S S S S S S S S S
|-------------------------|---------------------|---------------------------|
|-------------------------|---------------------|---------------------------|
|-------------------------|---------------------|---------------------------|
|-------6---5-------------|-------6---5---------|-------6---5---------------|
|-----4---4---6-7-7-8-4-5-|-----4---4---7-8-4-5-|-----4---4---6-7-7-8-4-5---|
|-5-7---------------------|-5-7-----------------|-5-7-----------------------|


 7/8                           5/16
  S S S S S S S S S S S S S S   S S S S S   S S S S S   S S S S S
|-----------------------------|-----------|-----------|------------|
|-----------------------------|-----------|-----------|------------|
|-----------------------------|-----------|-----------|------------|
|-------6---5-----------------|-----------|-----------|------------|
|-----4---4---7-8-4-5-6-7-3-4-|-7-4-6-4-0-|-7-4-6-4-0-|-7-4-6-4-0--|
|-5-7-------------------------|-----------|-----------|------------|


 6/16          5/16
  S S S S S S   S S S S S   S S S S S   S S S S S   S S S S S
|-------------|-----------|-----------|-----------|--------------|
|-------------|-----------|-----------|-----------|--------------|
|-------------|-----------|-----------|-----------|-------2-4----|
|-------2-4-5-|-7-4-6-4-0-|-7-4-6-4-0-|-7-4-6-4-0-|-3-4-6--------|
|-3-4-6-------|-----------|-----------|-----------|--------------|
|-------------|-----------|-----------|-----------|--------------|


             7/16            5/16        6/16
  S S S S S   S S S S S S S   S S S S S   S S S S S S
|-----------|---------------|-----------|-------------|
|-----------|---------------|-----------|-------2-3-5-|
|-5-2-4-2---|-5-2-4-2-4-2---|-5-2-4-2---|-2-4-5-------|
|---------3-|-------------3-|---------3-|-------------|
|-----------|---------------|-----------|-------------|
|-----------|---------------|-----------|-------------|


 5/16                                7/16
  S S S S S   S S S S S   S S S S S   S S S S S S S
|-----------|-----------|-----------|---------------|
|-6-3-5-----|-6-3-5-----|-6-3-5-----|---------------|
|-------6-3-|-------6-3-|-------6-3-|-5-6-5-3-------|
|-----------|-----------|-----------|---------6-4-3-|
|-----------|-----------|-----------|---------------|
|-----------|-----------|-----------|---------------|


 6/8
                        |-3-|
  E. E S E E E   E. E S S S S S S S S
|--------------|----------------------|
|--------------|----------------------|
|----4---3-1---|----4---3-4-3-1-------|
|-2----2-----4-|-2----2---------4-2---|
|--------------|--------------------4-|
|--------------|----------------------|


                7/8
                        |-3-|
  E. E S E E E   E. E S S S S S S S S S S
|--------------|----------------------------|
|--------------|----------------------------|
|----6---4-3---|----6---4-6-4-3-------------|
|-4----4-----6-|-4----4---------6-4---4-6---|
|--------------|--------------------7-------|
|--------------|----------------------------|


                                                   H.=H
 6/8
  E. E S E E E   E. E S S S S S S S   E. E S E E E   E. E S S S S S S S
|--------------|--------------------|--------------|---------------------|
|--------------|--------------------|--------------|---------------------|
|--------------|--------4-----------|--------------|--------1------------|
|----7---6-4---|----7-----7-6-4-----|----4---3-1---|----4-----4-3-1------|
|-5----6-----7-|-5----5---------7-4-|-2----2-----4-|-2----2---------4-2--|
|--------------|--------------------|--------------|---------------------|


              3/4
  Q.   E E E   q  q  q
|------------|----------*|
|------------|----------*|
|------------|----------*|
|------------|-2--2--2--*|
|-0----0-0-0-|----------*|
|------------|----------*|


7a. One Last Time

Gtr I (B E A D G C) - 

 4/4
  Gtr I
  W          W          W          W
|----------|----------|----------|------|
|----------|----------|----------|------|
|----------|----------|----------|------|
|-4--------|-2--------|----------|------|
|----------|----------|-4--------|-5----|
|----------|----------|----------|------|


  W          W          W          W
|----------|----------|----------|------|
|----------|----------|----------|------|
|----------|----------|----------|------|
|-4--------|-2--------|----------|------|
|----------|----------|-4--------|-5----|
|----------|----------|----------|------|


  W          W          W          W
|----------|----------|----------|------|
|----------|----------|----------|------|
|----------|----------|----------|------|
|-4--------|-2--------|----------|------|
|----------|----------|-4--------|-5----|
|----------|----------|----------|------|


  Q  +E  E +Q   Q    W            Q   +E   E  +Q    Q    W
|------------------|----------|------------------------|------|
|------------------|----------|------------------------|------|
|------------------|----------|------------------------|------|
|-4--(4)-6-(6)--7--|-9--------|-/11--(11)--------------|------|
|------------------|----------|-----------11-(11)\--4--|-5----|
|------------------|----------|------------------------|------|


  q  Q  q  E. S   e e E e q  Q    q  Q  q  E. S   e e E e q  Q
|---------------|---------------|---------------|---------------|
|---------------|---------------|---------------|---------------|
|---------------|---------------|---------------|---------------|
|---------------|---------------|---------------|---------------|
|-9-----9-------|-9-9-----9-----|-9-----9-------|-9-9-----9-----|
|-------------9-|-------9-------|-------------9-|-------9-------|


  q  Q  q  E. S   e e E e q  Q    q  Q  q  E. S   e e E e q  Q
|---------------|---------------|---------------|---------------|
|---------------|---------------|---------------|---------------|
|---------------|---------------|---------------|---------------|
|---------------|---------------|---------------|---------------|
|-9-----9-------|-9-9-----9-----|-9-----9-------|-9-9-----9-----|
|-------------9-|-------9-------|-------------9-|-------9-------|


  q  Q  q  E. S   e e E e q  Q    q  Q  q  E. S   e e E e q  Q
|---------------|---------------|---------------|---------------|
|---------------|---------------|---------------|---------------|
|---------------|---------------|---------------|---------------|
|---------------|---------------|---------------|---------------|
|-9-----9-------|-9-9-----9-----|-9-----9-------|-9-9-----9-----|
|-------------9-|-------9-------|-------------9-|-------9-------|


  q  Q  q  E. S   e e E e q  Q    q  Q  q  E. S   e e E e H
|---------------|---------------|---------------|---------------|
|---------------|---------------|---------------|---------------|
|---------------|---------------|---------------|---------------|
|---------------|---------------|---------------|---------------|
|-9-----9-------|-9-9-----9-----|-9-----9-------|-9-9-----9\----|
|-------------9-|-------9-------|-------------9-|-------9-------|


  W          W          W          W
|----------|----------|----------|------|
|----------|----------|----------|------|
|----------|----------|----------|------|
|-4--------|-2--------|----------|------|
|----------|----------|-4--------|-5----|
|----------|----------|----------|------|


  W          W          W          W
|----------|----------|----------|------|
|----------|----------|----------|------|
|----------|----------|----------|------|
|-4--------|-2--------|----------|------|
|----------|----------|-4--------|-5----|
|----------|----------|----------|------|


  W          Q  +E  E +Q   Q    H.      +E  S S   Q  +E  E +Q   Q
|----------|------------------|-----------------|-------------------|
|----------|------------------|-----------------|-------------------|
|----------|------------------|-----------------|-------------------|
|-4--------|-2--(2)-4-(4)--6--|-----------------|--------7-(7)--6---|
|----------|------------------|-4-------(4)-2-4-|-5--(5)------------|
|----------|------------------|-----------------|-------------------|


  H.      +E  S S   Q  +E  E +Q   Q
|-----------------|------------------|
|-----------------|------------------|
|-----------------|------------------|
|-4-------(4)-6-7-|-6--(6)-7-(7)--9--|
|-----------------|------------------|
|-----------------|------------------|


   Q   +E   E  Q  +E  S S   Q  +E  E +Q   Q
|-------------------------|------------------|
|-------------------------|------------------|
|-------------------------|------------------|
|-11--(11)----------------|------------------|
|----------11\-4--(4)-2-4-|-5--(5)-4-(4)--0--|
|-------------------------|------------------|


 7/4         4/4             7/4
  W   +H.      W      +W      Q  Q  S S S S E  E +E  E E E E E
|-----------|------|--------|----------------------------------|
|-----------|------|--------|----------------------------------|
|-----------|------|--------|----4--2-------2--4-(4)-------2-4-|
|-----------|------|--------|---------4-2-0----------2-2-4-----|
|-2---(2)---|--2---|--(2)---|-2--------------------------------|
|-----------|------|--------|----------------------------------|


 4/4                                    7/4
  Q  Q  S S S S E E   +E  E E E E E Q    Q  Q  S S S S E E +E  E E E E E
|-------------------|------------------|----------------------------------|
|-------------------|------------------|----------------------------------|
|----4--2-------2-4-|-(4)-------2-4-2--|----4--2-------2-4-(4)-------2-4--|
|---------4-2-0-----|-----2-2-4--------|---------4-2-0---------2-2-4------|
|-2-----------------|------------------|-2--------------------------------|
|-------------------|------------------|----------------------------------|


 4/4                          slap---------------|   
  Q  Q  S S S S S S E   +E  E S S S S S S S S E E
|---------------------|-------4-----6---6---5---4-|
|-------------------2-|-(2)-----4h6---------------|
|----4--2-------2-4---|-----4---------x---3---2---|
|---------4-2-0-------|---------------------------|
|-2-------------------|---------------------------|
|---------------------|---------------------------|


 7/4
  Q  Q  S S S S E E +E  E E E E E
|---------------------------------|
|---------------------------------|
|----4--2-------2-4-(4)-------2-4-|
|---------4-2-0---------2-2-4-----|
|-2-------------------------------|
|---------------------------------|


 4/4
  Q  Q  S S S S E E   +E  E E S S S S S S S E.
|-------------------|--------------------------|
|-------------------|-------------2-4-4-4-2h4--|
|----4--2-------2-4-|-(4)-----2-4--------------|
|---------4-2-0-----|-----2-4------------------|
|-2-----------------|--------------------------|
|-------------------|--------------------------|


  E. S S S E +E  S S E E    E. S S S E +E  E S S E
|-------------------------|------------------------|
|-------------------------|------------------------|
|----------7-(7)-----7----|------------------------|
|-0--0-0-0-------0-0---0--|-2--2-2-2-2-(2)-2-2-2-2-|
|-------------------------|------------------------|
|-------------------------|------------------------|


  E. S S S  E +E  E +E  E
|----------------------------|
|----------------------------|
|----------/7-(7)------------|
|-0--0-0-0-------------------|
|-----------------0-(0)-0----|
|----------------------------|


  E. S S S  E +E  S S S S E
|---------------------------|
|---------------------------|
|---------------------------|
|----------/9-(9)-9-9-7-9-9-|
|-2--2-2-2------------------|
|---------------------------|


  E. S S S  E +E  S S S S E   E. S S S E +E  E S S E
|---------------------------|-------------------------|
|---------------------------|-------------------------|
|----------/7-(7)-----7-7---|-------------------------|
|-0--0-0-0--------0-0-----0-|-2--2-2-2-2-(2)-2-2-2-2--|
|---------------------------|-------------------------|
|---------------------------|-------------------------|


  E. S S S E +E  S S E E   E. S S S E +E  S S Q     E. S S S  E +E  E  S S E
|------------------------|------------------------|----------------------------|
|------------------------|------------------------|----------------------------|
|------------------------|------------------------|----------/7-(7)----7-7-----|
|-3--3-3-3-3-(3)-3-3-3-3-|-5--5-5-5-5-(5)-5-5-5\--|-0--0-0-0--------0------0---|
|------------------------|------------------------|----------------------------|
|------------------------|------------------------|----------------------------|


  E. S S S E +E  E E  E     H   H      Q  +E  E  +H       W
|-----------------------|-----------|----------------|---------|
|-----------------------|-----------|----------------|---------|
|-----------------------|-----------|----------------|---------|
|-2--2-2-2-2-(2)-2-2--2-|--/9---7---|--5--(5)-5--(5)-|---------|
|-----------------------|-----------|----------------|----0----|
|-----------------------|-----------|----------------|---------|


  H.   E E     +W        W         +W       Q +E  E Q +E  E
|----------|---------|--------|----------|-------------------|
|----------|---------|--------|----------|-------------------|
|----------|---------|--------|----------|-------------------|
|----------|---------|--------|----------|--2-(2)-2-2-(2)-2--|
|-3----3-3-|---(3)---|---5----|----(5)---|-------------------|
|----------|---------|--------|----------|-------------------|


           |-3-|                               |-3-|
  +E  E H  E E E    Q +E  E Q +E  E   +E  E H  E E E   Q +E  E H
|----------------|------------------|----------------|--------------|
|----------------|------------------|----------------|--------------|
|----------------|------------------|----------------|--------------|
|-(2)-2-2--2-1-0-|------------------|----------------|--------------|
|----------------|--4-(4)-4-4-(4)-4-|-(4)-4-4--4-3-2-|-1-(1)-1-1----|
|----------------|------------------|----------------|--------------|


  E E +E  E  H     Q +E  E Q Q    E E +Q   H    Q +E  E +E   E  Q
|---------------|--------------|-------------|-----------------------|
|---------------|--------------|-------------|-----------------------|
|---------------|------------6-|-------------|-----------------------|
|---------------|--------------|-------------|-----------------------|
|-1-1-(1)-1--1--|--4-(4)-4-4---|--4-4-(4)--4-|--8-(8)-8-(8)--8--8----|
|---------------|--------------|-------------|-----------------------|


  Q  +E  E +E  E Q    Q  +E  E +E  E Q    Q  +E  E +E  E Q   Q  +E  E  +H
|-------------------|-------------------|------------------|------------------|
|-------------------|-------------------|------------------|------------------|
|-------------------|-------------------|------------------|------------------|
|-------------------|-8--(8)-8-(8)-8-8--|-6--(6)-6-(6)-6-6-|-5--(5)-5--(5)----|
|-6--(6)-6-(6)-6-6--|-------------------|------------------|------------------|
|-------------------|-------------------|------------------|------------------|


  W           W
|--------|---------*|
|--------|---------*|
|--------|---------*|
|-4------|---------*|
|--------|---------*|
|--------|----1----*|


8. The Spirit Carries On

Intro:

   Q=63
   6/8
   Wx15   H     E  E   H.    E   Q.    E E E     H    H   H.   E    H    E E
G|------|------14----|-12---11-|-9------------|---------|---------|----------|
D|------|---------14-|---------|---------9-11-|-12---11-|-9----9\-|-5----4-5-|
A|------|------------|---------|------12------|---------|---------|----------|
E|------|------------|---------|--------------|---------|---------|----------|
B|------|------------|---------|--------------|---------|---------|----------|


   W      H     (E)    Q.  E E E     H     (E)  E--E--E   Q.  Q.    H   (E) S
G|------|------------|-7---7-9-11-|------------11/12\11-|-9-------|-----------|
D|------|------(0)-7-|------------|---------------------|---------|-0---(0)-7-|
A|------|------------|------------|-10----(10)----------|-----7---|-----------|
E|-0----|------------|------------|---------------------|---------|-----------|
B|------|-3----------|------------|---------------------|---------|-----------|


   Q.  (Q)  E   Q  TG E  Q   Q  TG Q.  W      Q.  Q.  H   (E) TG   Q.  Q.  W
G|-7---(7)--7-|-0-----0----|-2-----2-|------|-------|------------|-------|------|
D|------------|-----0----0-|-----2---|-0----|-------|------------|-0-----|------|
A|------------|------------|---------|------|-------|------------|-----4-|-2----|
E|------------|------------|---------|------|-2---2-|-3---(3)--5-|-------|------|
B|------------|------------|---------|------|-------|------------|-------|------|


   W      W      W      W      W      H   (E) TG   Q.  Q.  W      W      Q.  Q.
G|------|------|------|------|------|------------|-------|------|------|-------|
D|------|------|------|-0----|------|------------|-0-----|------|------|-------|
A|-0----|------|------|------|------|------------|-----4-|-2----|-0----|-------|
E|------|-4----|-5----|------|-2----|-3---(3)--5-|-------|------|------|-4---0-|
B|------|------|------|------|------|------------|-------|------|------|-------|


   W      E  G  E G Q.  E. S S S Q.  E E E E E S S   E E E Q.  W      E (E) E G Q.
G|------|-------------|------------|---2-----2-4---|-----4---|------|-------------|
D|------|-------------|------------|-0---0-------4-|---4-----|------|-------------|
A|-0----|-------------|-0--0-----0-|-------4-------|-2-------|------|-0-(0)-0---0-|
E|------|-3-(3)-3-0-3-|------3-0---|---------------|-------2-|-3----|---------0---|
B|------|-------------|------------|---------------|---------|------|-------------|


   Q. Q.  E.  S S S S S S S E   H   (E)  E   Q.  Q.  H   E E   Q.  Q.  H   E E   W
G|-------|--------------------|------------|-------|-------7-|-------|---------|------|
D|-0--R--|--------------------|------------|-------|-4---4---|-6---2-|---------|------|
A|-------|--------------------|------------|-----7-|---------|-------|---------|------|
E|-------|--------------------|-0---(0)--0-|-------|---------|-------|-3---3-2-|-0----|
B|-------|-3--3-3-3-3-3-3-3-3-|------------|-3-----|---------|-------|---------|------|


   W      W      W      W      W      W      W      W      W      W
G|------|------|------|------|------|------|------|------|------|------|
D|------|------|------|------|------|------|------|------|------|------|
A|-2----|-2----|-1----|-1----|-0----|-0----|------|------|------|------|
E|------|------|------|------|------|------|-4----|-4----|-3----|------|
B|------|------|------|------|------|------|------|------|------|-3----|


   E-S E E T E E S-S-S   E-S E E T E E E   E-S E E T E E S-S-S   E-S E E T E E S-S-S  
G|---------------------|-----------------|---------------------|---------------------|
D|---------------------|-----------------|---------------------|---------------------|
A|---2-R-2---2-----2---|-2-2-R-2---2---2-|-1-1-R-1---1-----1---|-1-1-R-1---1-----1---|
E|-2-------2---2-2---2-|---------2---2---|---------1---1-1---1-|---------1---1-1---1-|
B|---------------------|-----------------|---------------------|---------------------|


   W      Q.  Q.  H   E E   W      Q  (E)-S E E E   E-S T E T E E E   E S-S-S E E S-S-S E
G|------|-------|---------|------|----------------|-----------------|---------------------|
D|------|-------|---------|------|----------------|-----------------|---------------------|
A|-0----|-----5-|-----0-2-|------|----------------|-0-0-R-0---0-0-0-|---0-r---0---0-r---0-|
E|------|-2-----|-2-------|-0----|-3--(3)-0-3-0-3-|---------1-------|-2-----2---0-----0---|
B|------|-------|---------|------|----------------|-----------------|---------------------|


   E E E E E E   W      W      Q.  Q.  W      Q.  Q.  Q.  Q  E   Q.  (Q)  E
G|-----------7-|------|------|-------|------|-------|----------|------------|
D|---------7---|------|------|-------|------|-------|----------|------------|
A|-------5-----|------|-0----|-2---4-|-5----|-2---4-|-5---7--9-|------------|
E|---0-2-------|-1----|------|-------|------|-------|----------|-3---(3)--2-|
B|-3-----------|------|------|-------|------|-------|----------|------------|


   H   E E   H   (E) E   H   (E.) S   W      Q.  Q.  Q.  E E E   Q.  S-S-S E E
G|---------|-----------|------------|-2----|-------|-----------|---------------|
D|---------|-----------|----------2-|------|-------|-----------|---------------|
A|-----7-5-|-3---(3)-2-|-0----(0)---|------|-5-----|-------5---|-----2-0-------|
E|-0-------|-----------|------------|------|-------|-2---2---2-|-3-------3-3---|
B|---------|-----------|------------|------|-----3-|-----------|-------------3-|


   Q.  E E E   Q.  E E E   Q.  E-S E E   Q.  Q.  Q  S S Q.  W      H   E E
G|-----------|-----------|-------------|-------|----------|------|---------|
D|-----------|-----------|-------------|-------|----------|------|---------|
A|-5---4---4-|-2---2---2-|-0---0---0---|-------|-0------0-|-5----|---------|
E|-------2---|-------2---|-------2---2-|-4---0-|----2-0---|------|-2---0-2-|
B|-----------|-----------|-------------|-------|----------|------|---------|


   Q  E-S E E E   Q.  Q.  Q  (E)-S E E E   Q  (E)-S E E E   Q.  Q.  W
G|--------------|-------|----------------|----------------|-------|------|
D|----5-7-5-----|-------|----------------|----------------|-------|------|
A|------------4-|-5---4-|-2--(2)---2---2-|-0--(0)---0---0-|-------|-0----|
E|-3--------2---|-------|--------2---2---|--------2---2---|-4---0-|------|
B|--------------|-------|----------------|----------------|-------|------|


   Q  E-S Q  E   Q  E Q.  Q.  Q.  Q.  Q.  H   E E   W      Q  E-S E S-S-S
G|-------------|--------|-------|-------|---------|------|----------7/9\7-|
D|-------------|--------|-------|-------|---------|------|----------------|
A|-------------|-0------|-5---4-|-2---0-|---------|------|-0--R---0-------|
E|-3--2-0-3--2-|----2-0-|-------|-------|-3---3-2-|-0----|------2---------|
B|-------------|--------|-------|-------|---------|------|----------------|


   Q  E-S E S-S-S   Q.   E E E   Q.  E E E   Q  (E)-S S-S-S   Q  (E)-S S-S-S
G|----------7/9\7-|------------|-----------|----------7/9\7-|----------7/9\7-|
D|----------------|------------|-----------|----------------|----------------|
A|-0--R---0-------|-----10-9-5-|-7---7-7-7-|--------0-------|--------0-------|
E|------2---------|------------|-----------|----------------|----------------|
B|----------------|-3----------|-----------|-3--(3)---------|-3--(3)---------|


   Q  (S)-S-S E (E)-S E   Q  (E)-S Q  E   Q  E-S E S-S-S   
G|----------------------|---------------|----------7/9\7-|
D|-5--(5)-2-0-5-(5)-0-5-|-7--(7)---7----|----------------|
A|----------------------|--------7----7-|-0--R---0-------|
E|----------------------|---------------|------2---------|
B|----------------------|---------------|----------------|


   Q  E-S E S-S-S   Q.   E E E   Q.  E E E   Q  (E)-S S-S-S   Q  (E)-S S-S-S
G|----------7/9\7-|------------|-----------|----------7/9\7-|----------------|
D|----------------|------------|-----------|----------------|----------------|
A|-0--R---0-------|-----10-9-5-|-7---7-7-7-|--------0-------|--------0-5/7\5-|
E|------2---------|------------|-----------|----------------|----------------|
B|----------------|-3----------|-----------|-3--(3)---------|-3--(3)---------|


   Q  (S)-S-S E (E)-S E   Q  (E)-S Q.  H  (E) E   Q.   S  S  S   H    E E
G|----------------------|------------|----------|-7---14/16\14-|-7--------|
D|-5--(5)-2-0-5-(5)-0-5-|-7--(7)---7-|--------7-|--------------|----------|
A|----------------------|--------7---|-5--(5)---|--------------|-----10-9-|
E|----------------------|------------|----------|--------------|----------|
B|----------------------|------------|----------|--------------|----------|


   H   (E) E   H   (E) S  S    S  S  E  (H)   H   E E   Q.  Q.  W
G|-----------|--------------|-19------------|---------|-------|------|
D|---------7-|-----------19-|----19---------|-5---5-4-|-2-----|------|
A|-7---(7)---|-5---(5)-r----|-------17-(17)-|---------|-------|------|
E|-----------|--------------|---------------|---------|-----5-|------|
B|-----------|--------------|---------------|---------|-------|-3----|



9. Finally Free

Gtr I (B E A D G C) - 


  Q=88                     H.Q=60      Q=83
  N.C.
 4/4
  Gtr I
  W          Wx16          W           Wx4
|----------|-------------|----------||--------|
|----------|-------------|----------||--------|
|----------|-------------|----------||--------|
|----------|-------------|----------||--------|
|----------|-------------|----------||--------|
|----------|-------------|----------||--------|

              
  Q=80         Q=83
              7/8         4/4
  Wx9          Wx3         W          Wx8
|------------|-----------|----------|--------|
|------------|-----------|----------|--------|
|------------|-----------|----------|--------|
|------------|-----------|----------|--------|
|------------|-----------|----------|--------|
|------------|-----------|----------|--------|

              2/4    4/4          7/8         4/4
  Wx4          W      Wx8          Wx3         W
|------------|------|------------|-----------|------|
|------------|------|------------|-----------|------|
|------------|------|------------|-----------|------|
|------------|------|------------|-----------|------|
|------------|------|------------|-----------|------|
|------------|------|------------|-----------|------|



  a E S e S e e S T T e S S   E. S E S E S E S S E
|---------------------------|----------------------|
|---------------------------|----------------------|
|-------6-------------------|----------------------|
|-----------------4s6---4h5-|-6--6-----6---6---6-6-|
|-2s4-----4-4-4-4-----4-----|----------------------|
|---------------------------|----------------------|



  E. S S S e E S e S E   E. S E E E. S E S S
|----------------------|---------------------|
|----------------------|---------------------|
|----------------------|---------------------|
|-7--7-7-6-4-----4-4-4-|-6--6-6--------------|
|----------------------|--------0-2--2-2---2-|
|----------------------|---------------------|



  a E S e S e e S T T e S S   E. S S S E S E S S E S
|---------------------------|------------------------|
|---------------------------|------------------------|
|-------6-------------------|------------------------|
|-----------------4s6---4h5-|-6--6---6-6-------4h6-6-|
|-2s4-----4-4-4-4-----4-----|------------------------|
|---------------------------|--------------4-4-------|



  E. S S S Q  +S  E S E   E. S E E E. S Q
|-----------------------|------------------|
|-----------------------|------------------|
|-----------------------|------------------|
|-7--7-7-6-4--(4)-4-4-4-|-6--6-6-6-6--6-6--|
|-----------------------|------------------|
|-----------------------|------------------|




  E. S E E +S  S E S S E   E. S E  E E. S Q
|------------------------|-------------------|
|------------------------|-------------------|
|--------6-(6)-----6-----|-------------------|
|------------------------|--------/8-6--6-6--|
|-4--4-4-------4-4---4-4-|-3--3-3------------|
|------------------------|-------------------|



  E. S E E E. S E E   E. S E E Q.   +S  S
|-------------------|-----------------------|
|---------------6---|-----------------------|
|-------------------|-----------------------|
|-7--7-7-6-4--4---4-|-6--6-6----------------|
|-------------------|--------0-2----(2)-2---|
|-------------------|-----------------------|



  E. E S E +E. S E E   E. S E  E E. S Q    E. S E E E. S E E   E. S E E H
|--------------------|-------------------|-------------------|--------------|
|--------------------|-------------------|---------------6---|--------------|
|----------------6---|-------------------|-------------------|--------------|
|--------------------|--------/8-6--6-6--|-7--7-7-6-4--4---4-|-6--6-6-6-6---|
|-4--4-4-4-(4)-4---4-|-3--3-3------------|-------------------|--------------|
|--------------------|-------------------|-------------------|--------------|




  S S S S E. T T E. T T Q    E. T T E. T T T T S S E. E
|--------------------------|----------------------------|
|--------------------------|----------------------------|
|---------4------4------4--|-2------2------2-2-----2----|
|--------------------------|----------------------------|
|-2-2-2-2----2-2----2-2----|----0-0----0-0-----0-0----0-|
|--------------------------|----------------------------|



  E. T T E. T T S T T S S E S S   E. T T S S E Q.   S S
|-------------------------------|-----------------------|
|-------------------------------|-----------------------|
|-------------------------------|--------6--------------|
|-6------6------6---------6-----|-----------------------|
|-------------------------------|-4--4-4---4-4-4----4-4-|
|----4-4----4-4---4-4-4-4---7-7-|-----------------------|



  E. T T E. T T T T S E E E   E. T T E. T T T T S E E E
|---------------------------|---------------------------|
|---------------------------|---------------------------|
|--------4------4-------4---|--------2------2-------2---|
|---------------------------|---------------------------|
|-2--2-2----2-2---2-2-2---2-|-0--0-0----0-0---0-0-0---0-|
|---------------------------|---------------------------|



  E. T T E. T T S S S S E E   S S S S Q  H
|---------------------------|-----------------|
|---------------------------|-----------------|
|---------------------------|-----------------|
|-6------6------6-------6---|-6-------6-------|
|---------------------------|------------3----|
|----4-4----4-4---4-4-4---4-|---4-4-4---------|



    W          W          W          W     4x
||-----------|----------|----------|-------||
||o----------|----------|----------|------o||
||-----------|----------|----------|-------||
||-----------|----------|----------|-------||
||o-4--------|-2--------|----------|-5----o||
||-----------|----------|-2--------|-------||




    E E E E Q  E E   E E E E H      E E E E Q  E E   E E E E H
||-----------------|--------------|----------------|---------------||
||o-----6----------|---4-4--------|----------------|--------------o||
||----6-----6----6-|---------4----|-----6----------|---7-7---7-----||
||--4-----4----4---|-2-----2------|---6-----6------|---------------||
||o----------------|--------------|-4-----4----4-4-|-0-----5------o||
||-----------------|--------------|----------------|---------------||x3



  E E E E Q  E E   E E E E H      E E E E Q.   E   E E E E E E E E
|----------------|--------------|----------------|-----------------|
|---6-6----------|---4-4--------|----------------|-----------------|
|---------6----6-|---------4----|-----7----------|-----6-----6-----|
|-4-----4----4---|-2-----2------|---7-----7------|---6-----6-----4-|
|----------------|--------------|-5-----5------5-|-4-----4-----4---|
|----------------|--------------|----------------|-----------------|


 Guitar Solo

  W          E E E E +H       W          E E H.
|----------|----------------|----------|-----------|
|----------|-----4----------|----------|-----------|
|----------|---4---4-(4)----|----------|-----7-----|
|-4--------|-2--------------|----------|---7-------|
|----------|----------------|-4--------|-5---------|
|----------|----------------|----------|-----------|



  E. S E E +E  S S E E   E E E E H      E E E E E E Q
|----------------------|--------------|-----------------|
|------6-----------6---|-----4--------|-----2-----2-----|
|----------------------|---4-----4----|---2-----2-------|
|-4--4---4-(4)-4-4---4-|-2-----2------|-0-----0-----0---|
|----------------------|--------------|-----------------|
|----------------------|--------------|-----------------|


                   12/8
  E E E E E E E E   E. E S E. E S E. E S Q  E
|-----------------|---------------------------|
|-----4-----4-----|--------6-------------8----|
|---4-----4-----4-|---------------------------|
|-2-----2-----2---|-4--4-4----4-4-6--6-6----6-|
|-----------------|---------------------------|
|-----------------|---------------------------|



  E. E S   E.  E  S E. E S S E E S
|----------------------------------|
|----------------------------------|
|----------------------------------|
|----------------------------------|
|-0--0-0-/12--12-12-0--0-0-2-4-5-7-|
|----------------------------------|



  Q.   Q.   Q.   S E. E   Q.   Q.   Q.   S E E S
|-----------------------|------------------------|
|-----------------------|------------------------|
|-----------------------|------------------------|
|-----------------------|------------------------|
|-9----8----7----6-5--4-|-7----6----5----2-4-5-7-|
|-----------------------|------------------------|



  Q.   Q.   Q.   Q.     Q.   Q.   Q.   Q.      Q.   Q.   Q.   Q.
|---------------------|---------------------|----------------------|
|---------------------|---------------------|----------------------|
|---------------------|---------------------|----------------------|
|---------------------|---------------------|----------------------|
|-9----8----7----6----|-5----4----2----0----|-11----9----7----5----|
|---------------------|---------------------|----------------------|



 6/8         4/4
  Q.   Q.     H    H      H    H      +W
|-----------|-----------|-----------|--------||
|-----------|-----------|-----------|--------||
|-----------|-----------|-----------|--------||
|------3----|-4----2----|-1----0----|-(0)----||
|-4---------|-----------|-----------|--------||
|-----------|-----------|-----------|--------||


  Q=85
  Wx8
|--------|
|--------|
|--------|
|--------|
|--------|
|--------|


                                                   1.
    E. E. Q  Q.     Q.   E H       E. S E E H      E. S E E Q  +E. S
||----------------|-------------|----------------|--------------------||
||o---------------|-------------|----------------|-------------------o||
||----------------|-------------|----------------|--------------------||
||----------------|-------------|-/7--7-7-6-4----|-6--6-6-------------||
||o-4--4--4--4----|-3----1------|----------------|--------0-2--(2)-2-o||
||----------------|--------4----|----------------|--------------------||


  2.
                                   2/4
  E. E. E E. E E.    E. E. E H      E. E. E
|-----------------|---------------|---------|
|-----------------|---------------|---------|
|-----------------|---------------|---------|
|-6--6--6-6--6-6--|-/7--7--6-4----|-6--6----|
|-----------------|---------------|-------0-|
|-----------------|---------------|---------|


 4/4
  E. E S +E. S +E  +Q     E. E. E +Q   Q
|-----------------------|-----------------||
|-----------------------|-----------------||
|-4--4-4-(4)-4-(4)-(4)--|-4--4--4-(4)--4--||
|-----------------------|-----------------||
|-----------------------|-----------------||
|-----------------------|-----------------||



    H    Q  Q    Q.   E Q.   S S   H    Q.   E   H    Q  Q
||-------------|-----------------|-------------|------------|
||o------------|-----------------|-------------|------------|
||-------------|-----------------|-------------|------------|
||-------------|--------4--------|-------------|------------|
||o-4----6--7--|-6----7------7-6-|-4----0------|------7--6--|
||-------------|-----------------|-----------4-|-2----------|



  1.
  H    Q  Q    Q.   E Q.   S S   H    H      E. S E +Q    S S Q
|------------|-----------------|-----------|----------------------||
|------------|-----------------|-----------|---------------------o||
|------------|-----------------|-----------|----------------------||
|------------|--------4--------|-----------|------7-(7)\----------||
|-4----6--7--|-6----7------7-6-|-4----2----|-0--0-----------0-2--o||
|------------|-----------------|-----------|----------------------||



  2.
  H    Q  Q    Q.   E H      H    Q.   E   H    E. E E S
|------------|-------------|-------------|---------------||
|------------|-------------|-------------|---------------||
|------------|-------------|-------------|---------------||
|------------|-------------|-------------|---------------||
|-4----6--7--|-6----4-3----|-4----0------|---------------||
|------------|-------------|-----------4-|-2----4--4-4-4-||



    H    Q  Q    Q.   E Q.   S S   H    Q.   E   H    Q  Q
||-------------|-----------------|-------------|------------|
||o------------|-----------------|-------------|------------|
||-------------|-----------------|-------------|------------|
||-------------|--------4--------|-------------|------------|
||o-4----6--7--|-6----7------7-6-|-4----0------|------7--6--|
||-------------|-----------------|-----------4-|-2----------|



  1.
  H    Q  Q    Q.   E Q.   S S   H    H      H.      Q
|------------|-----------------|-----------|--------------||
|------------|-----------------|-----------|-------------o||
|------------|-----------------|-----------|--------------||
|------------|--------4--------|-----------|--------------||
|-4----6--7--|-6----7------7-6-|-4----2----|-0-------2---o||
|------------|-----------------|-----------|--------------||



  2.
  H    Q  Q    Q.   E H      H    Q.   E   H    H
|------------|-------------|-------------|-----------||
|------------|-------------|-------------|-----------||
|------------|-------------|-------------|-----------||
|------------|-------------|-------------|-----------||
|-4----6--7--|-6----4-3----|-4----0------|-----------||
|------------|-------------|-----------4-|-2----4----||




    H    Q  Q    Q.   E Q.   S S   H    Q.   E   H    Q  Q
||-------------|-----------------|-------------|------------|
||o------------|-----------------|-------------|------------|
||-------------|-----------------|-------------|------------|
||-------------|--------4--------|-------------|------------|
||o-4----6--7--|-6----7------7-6-|-4----0------|------7--6--|
||-------------|-----------------|-----------4-|-2----------|



  1.
  H    Q  Q    Q.   E Q.   S S   H    H      H.      Q
|------------|-----------------|-----------|--------------||
|------------|-----------------|-----------|-------------o||
|------------|-----------------|-----------|--------------||
|------------|--------4--------|-----------|--------------||
|-4----6--7--|-6----7------7-6-|-4----2----|-0-------2---o||
|------------|-----------------|-----------|--------------||



  2.
  H    Q  Q    Q.   E H      H    Q.   E   H    H
|------------|-------------|-------------|-----------||
|------------|-------------|-------------|-----------||
|------------|-------------|-------------|-----------||
|------------|-------------|-------------|-----------||
|-4----6--7--|-6----4-3----|-4----0------|-----------||
|------------|-------------|-----------4-|-2----4----||




  H    Q  Q    Q.   E Q.   S S   H    H      W
|------------|-----------------|-----------|------|
|------------|-----------------|-----------|------|
|------------|-----------------|-----------|------|
|------------|--------4--------|-----------|------|
|-4----6--7--|-6----7------7-6-|-4---------|------|
|------------|-----------------|-----------|------|


                         SCO Vinyl
                          Slowly E=107
                          N.C.
                         6/8
  Wx3          W          Wx6        W
|------------|----------|----------|------*|
|------------|----------|----------|------*|
|------------|----------|----------|------*|
|------------|----------|----------|------*|
|------------|----------|----------|------*|
|------------|----------|----------|------*|
Suggest correction
Creating personal tab
Creating personal tab
You can edit any tab online and save it as your Personal.

You can edit, replace or remove any tab part or add personal notes – all changes will be seen only by you.

Personal tabs can be accessed anytime from any device, even offline.
Learn more »
Give kudos to tab author, rate the tab!
1 2 3 4 5
comments
print report bad tab
guest
You may want to rate the tab now too:
select rating
Wanna post a correction for this tab? Suggest correction