Oops, an error
Loading. Please wait.

Solitary Shell Tab

version 1
version 1

Intro

Whole song

Interactive

8,101 views 1 this week
no commentswrite comment
1 2 3 4 5
please rate
add to favorites
launch autoscroll
font size
0
reset
how to read this tab
guitar tuner
Tab Pro tools
  • play this tab
  • loop segment
  • change instrument
  • show fretboard
  • metronome
×
Best way to learn
"Solitary Shell"
Autoscroll
slow
fast
+/-
esc
set tempo
stop
Difficulty
novice
Dream Theater - Solitary Shell
Tuning: Standard eBGDAE
Notes:Only intro. I think it's correct. 

Tabbed By: Fabio Zucconi (-rhapsody-@tiscali.it)                                                        


Traccia 1
                                              
E||------0-0------0-------0-0------0------0--|
B||------0-0------0-------0-0------0------0--|
G||--6--------4-------8--------4-------4-----|
D||--6--------4-------9--------4-------6-----|
A||--4--------2-------6--------2-------------|
E||------------------------------------4-----|


                                           
------0-0------0-------0-0------0-------0-|
------0-0------0-------0-0------0-------0-|
--6--------4-------9--------8-------4-----|
--6--------4-------9--------9-------4-----|
--4--------2-------7--------6-------2-----|
------------------------------------------|


                                           
------0-0------0-------0-0------0------0--|
------0-0------0-------0-0------0------0--|
--6--------4-------8--------4-------4-----|
--6--------4-------9--------4-------6-----|
--4--------2-------6--------2-------------|
------------------------------------4-----|


                                           
------0-0------0-------0-0------0-------0-|
------0-0------0-------0-0------0-------0-|
--6--------4-------9--------8-------4-----|
--6--------4-------9--------9-------4-----|
--4--------2-------7--------6-------2-----|
------------------------------------------|


                                           
------0-0------0-------0-0------0------0--|
------0-0------0-------0-0------0------0--|
--6--------4-------8--------4-------4-----|
--6--------4-------9--------4-------6-----|
--4--------2-------6--------2-------------|
------------------------------------4-----|


                                           
------0-0------0-------0-0------0-------0-|
------0-0------0-------0-0------0-------0-|
--6--------4-------9--------8-------4-----|
--6--------4-------9--------9-------4-----|
--4--------2-------7--------6-------2-----|
------------------------------------------|


                                           
------0-0------0-------0-0------0------0--|
------0-0------0-------0-0------0------0--|
--6--------4-------8--------4-------4-----|
--6--------4-------9--------4-------6-----|
--4--------2-------6--------2-------------|
------------------------------------4-----|


                                           
------0-0------0-------0-0------0-------0-|
------0-0------0-------0-0------0-------0-|
--6--------4-------9--------8-------4-----|
--6--------4-------9--------9-------4-----|
--4--------2-------7--------6-------2-----|
------------------------------------------|


                                           
------0-0------0---4---4-4------4------4--|
------0-0------0---4---4-4------4------4--|
--6--------4-------4----------------------|
--6--------4-------6--------6-------------|
--4--------2-------6--------6-------6-----|
-------------------4--------4-------4-----|


                                           
------0-0------0---0---0-0------0------0--|
------0-0------0---0---0-0------0------0--|
--6--------4-------1----------------------|
--6--------4-------2--------2-------------|
--4--------2-------2--------2-------2-----|
-------------------0--------0-------0-----|


                                           
------0-0------0---4---4-4------4------4--|
------0-0------0---4---4-4------4------4--|
--6--------4-------4----------------------|
--6--------4-------6--------6-------------|
--4--------2-------6--------6-------6-----|
-------------------4--------4-------4-----|


                                           
------0-0------0---0---0-0------0------0--|
------0-0------0---0---0-0------0------0--|
--6--------4-------1----------------------|
--6--------4-------2--------2-------------|
--4--------2-------2--------2-------2-----|
-------------------0--------0-------0-----|


                                           
------0-0------0---4---4-4------4------4--|
------0-0------0---4---4-4------4------4--|
--6--------4-------4----------------------|
--6--------4-------6--------6-------------|
--4--------2-------6--------6-------6-----|
-------------------4--------4-------4-----|


                                           
------0-0------0---0---0-0------0------0--|
------0-0------0---0---0-0------0------0--|
--6--------4-------1----------------------|
--6--------4-------2--------2-------------|
--4--------2-------2--------2-------2-----|
-------------------0--------0-------0-----|


                                           
------0-0------0---4---4-4------4------4--|
------0-0------0---4---4-4------4------4--|
--6--------4-------4----------------------|
--6--------4-------6--------6-------------|
--4--------2-------6--------6-------6-----|
-------------------4--------4-------4-----|


                                                                     
------0-0------0---0---0-0------0------0--|------0-0------0---0---0-|
------0-0------0---0---0-0------0------0--|------0-0------0---4---0-|
--6--------4-------1----------------------|--4--------4-------4-----|
--6--------4-------2--------2-------------|--4--------4-------4-----|
--4--------2-------2--------2-------2-----|--2--------2-------2-----|
-------------------0--------0-------0-----|-------------------------|


                                                                                
------0-0-----0---0-0--0--|------0-0------0---0---0-|------0-0-----0---0-0--0--|
------0-0-----0---0----0--|------0-0------0---4---0-|------0-0-----0---0----0--|
--2--------2--1--------1--|--4--------4-------4-----|--2--------2--1--------1--|
--2--------2--2-----2--2--|--4--------4-------4-----|--2--------2--2-----2--2--|
--0--------0--2-----2-----|--2--------2-------2-----|--0--------0--2-----2-----|
--------------0-----0-----|-------------------------|--------------0-----0-----|


                                                                               
------0-0------0---0---0-|------0-0-----0---0-0--0--|------0-0------0---0---0-|
------0-0------0---4---0-|------0-0-----0---0----0--|------0-0------0---0---0-|
--4--------4-------4-----|--2--------2--1--------1--|--2--------2-------2-----|
--4--------4-------4-----|--2--------2--2-----2--2--|--4--------4-------4-----|
--2--------2-------2-----|--0--------0--2-----2-----|-------------------------|
-------------------------|--------------0-----0-----|--2--------2-------------|


                            
------0-0-----0---0-0--0--||
------0-0-----0---0----0--||
--2--------2--4-----4--4--||
--2--------2--4-----4--4--||
--0--------0--2-----2-----||
--------------------------||


comments
We did not receive enough feedback on this tab! Please rate:
print report bad tab
1 2 3 4 5
I want to post or [tab]
guest
You may want to rate the tab now too:
select rating
Please do not post tabs as comments. Select "correction" instead!