Oops, an error
Loading. Please wait.

Space Dye-Vest intro tab

4,448 views 6 this week
4 commentsread comments
1 2 3 4 5
x 3
add to favorites
×
Save as Personal and add changes to this tab that will be seen only by you. Learn more ›
×
You can save this tab as Personal to edit and correct it or add notes. All changes will be seen only by you. Learn more »
launch autoscroll
font size
0
reset
how to read this tab
guitar tuner
edit
Autoscroll
slow
fast
+/-
esc
set tempo
stop
Author
Difficulty
----------------------------------------------------------------------------
                             Space Dye-Vest - Dream Theater
----------------------------------------------------------------------------
Tabbed by: June Bug
Email: Little_piggy_8@hotmail.com

Tuning: Standard

Only Done The Intro So Far, Will Try And Do More At Some Point

e| ---0-----1-0-0--0-1-0---3-1-1--1-3-1---5-3-3--3-5-3-0-6-5-5--5-6-5---8-6|
B| -3---3----------------2--------------3-----------------------------6----|
G|.-------3----------------------------------------------------------------|
D|.------------------------------------------------------------------------|
A| ------------------------------------------------------------------------|
E| ------------------------------------------------------------------------|

e|-6--6-5-3-5-6-5-5--5-3-1-3-5-3-3--1-0---0-1-0-------|
B|--------------------------------------3-------3-----|
G|------------------------------------------------(2)-|. Play This Twice,
D|----------------------------------------------------|. Ignoring the (2) 
A|----------------------------------------------------|  Second Time Around
E|----------------------------------------------------|

Figured I'd Do This Because It's The Way I Taught Myself and Is Less Complicated
That Playing On D and G Higher Up The Neck

            
            
Suggest correction
Creating personal tab
Creating personal tab
You can edit any tab online and save it as your Personal.

You can edit, replace or remove any tab part or add personal notes – all changes will be seen only by you.

Personal tabs can be accessed anytime from any device, even offline.
Learn more »
Give kudos to tab author, rate the tab!
1 2 3 4 5
comments
print report bad tab
4 comments total. Showing first comments.
+1 reply
cglb123 36 May 11, 2006 01:12 PM

nice...finish the song asap

+1 reply
AetherEch0s 10 May 31, 2009 11:44 AM

nice, this is the easiest way to do the main riff after the intro
-------------------------------------------------
-------------------------------------------------
------0--------2-0-------0-------0---------------
-----0---3-2-------3-2-----3-2-0---3-2----------- repeat this
----0------------------1-------------------------
-------------------------------------------------

+1 reply
AetherEch0s 10 May 31, 2009 11:46 AM

oops left off the lowest open note, now this is right
-------------------------------------------------
-------------------------------------------------
------0--------2-0-------0-------0---------------
-----0---3-2-------3-2-----3-2-0---3-2----------- repeat
----0------------------1-------------------------
---0----------------------------------------------

guest
You may want to rate the tab now too:
select rating
Wanna post a correction for this tab? Suggest correction