Oops, an error
Loading. Please wait.

The Answer chords

version 1
version 1

Whole song

6,889 views 39 this week
1 commentread comment
1 2 3 4 5
x 11
add to favorites
×
Save as Personal and add changes to this tab that will be seen only by you. Learn more ›
×
You can save this tab as Personal to edit and correct it or add notes. All changes will be seen only by you. Learn more »
launch autoscroll
font size
0
reset
transpose
0
reset
simplify chords
display chords
guitar tuner
edit
Autoscroll
slow
fast
+/-
esc
set tempo
stop
Author
Strumming
There is no strumming pattern for this song yet. and get +5 IQ
-------------------------------------------------------------------------------
                             The Answer - Dream Theater
-------------------------------------------------------------------------------
Album: The Astonishing (2016)
Tabbed by: napalms
Hi, this is my first tab :)
Tuning: Standard

[Intro]
e|-------------------0-------------------------------0-----------------------|
B|---------------0-----------0-------------------0-----------0---------------|
G|-----------4-----------4-------------------4-----------4-------------------|
D|-------2-------------------------------2-----------------------------------|
A|---------------------------------------------------------------------------|
E|---0-------------------------------4---------------------------------------|

e|-------------------0---------------------------0---------------------------|
B|---------------2-----------2-------------------------------4---------------|
G|-----------2-----------4-------2-----------2-----------4-------4-----------|
D|-------2-------------------------------2-----------------------------------|
A|---0-------------------------------0---------------2-----------------------|
E|---------------------------------------------------------------------------|

e|-------------------0-------------------------------0-----------------------|
B|---------------0-----------0---------------2---------------0---------------|
G|-----------4-----------4---------------2-------2-------2-------2-----------|
D|-------2-------------------------------------------------------------------|
A|-----------------------------------0---------------------------------------|
E|---4-----------------------------------------------------------------------|

e|-------------------4-------------------------------5-----------------------|
B|-----------5---------------5---------------5---------------5---------------|
G|-------4-------4-------4-------4-------2-------2-------2-------2-----------|
D|---------------------------------------------------------------------------|
A|---2-------------------------------4---------------------------------------|
E|---------------------------------------------------------------------------|

[Pre-verse Chords] E Asus2 Bsus4

E                           Asus2     Bsus4
I don't pretend to have the answer
E                       Bsus4   B
Never said I have the key
  C#m7           Bsus4  Asus2            F#m
But somehow they see, a light inside of me
     E               Asus2           Bsus4   B
Am I not the man who I was meant to be

E                      Asus2     Bsus4
As the people gather round me
E                      Bsus4   B
I never felt so all alone
            C#m7             Bsus4
Is this the chance to be someone
   Asus2          F#m
My moment in the sun
       E           Asus2        Bsus4   B
Why am I afraid of facing the unknown

         E       Asus2    Bsus4
They are finding faith in me
    Asus2    E
And they believe 
          B
I'm the one 
            E
To set them free

            
            
Suggest correction
Creating personal tab
Creating personal tab
You can edit any tab online and save it as your Personal.

You can edit, replace or remove any tab part or add personal notes – all changes will be seen only by you.

Personal tabs can be accessed anytime from any device, even offline.
Learn more »
comments
print report bad tab
1 comment total.
0 reply
ksonkson 12 May 09, 2016 05:12 AM

(They are finding) is g# minor chrod

guest
You may want to rate the tab now too:
select rating
Wanna post a correction for this tab? Suggest correction