Oops, an error
Loading. Please wait.

The Best Of Times intro tab

version 1
version 1

Intro

Interactive

24,095 views 12 this week
3 commentsread comments
1 2 3 4 5
x 8
add to favorites
×
Save as Personal and add changes to this tab that will be seen only by you. Learn more ›
×
You can save this tab as Personal to edit and correct it or add notes. All changes will be seen only by you. Learn more »
launch autoscroll
font size
0
reset
how to read this tab
guitar tuner
backing track
0:00
0:00
edit
Autoscroll
slow
fast
+/-
esc
set tempo
stop
[Intro]

D|-----------------------------------------|
A|0-2-3~-3/7~--8~---2-3/5~--10~-8~-7-5-7~--|
F|-----------------------------------------|
C|-----------------------------------------|
G|-----------------------------------------|
D|-----------------------------------------|

D|---------------------------------------2~------|
A|-3~-2~-3/7~--7~-8~-5~--3--2-------------2~-----|
F|----------------------------4~-/6~-3~----3~----|
C|------------------------------------------4~---|
G|-------------------------------------------4~--|
D|--------------------------------------------0~-|

D|---------------------------------------------------------------|
A|-------3--3/7-/10-/12-8--7-7h8p7/5--2-3/5-10----8--7-----------|
F|---3-4-----------------------------------------8--8----6--7----|
C|-/4---------------------------------------------------7--------|
G|---------------------------------------------------------------|
D|---------------------------------------------------------------|

D|-----------------------------1---2~-----|
A|-----3-3/7-7~-7h8p7/5--3-5\2------2~----|
F|--3-4------------------------------3~---|
C|/4----------------------------------4~--|
G|-------------------------------------4~-|
D|----------------------------------------|



************************************

| /  Slide up
| ~  Vibrato
| h  Hammer-on
| p  Pull-off
| \  Slide down

************************************
Suggest correction
Creating personal tab
Creating personal tab
You can edit any tab online and save it as your Personal.

You can edit, replace or remove any tab part or add personal notes – all changes will be seen only by you.

Personal tabs can be accessed anytime from any device, even offline.
Learn more »
comments
print report bad tab
3 comments total.
+3 reply
Toast1337 142 Jul 02, 2009 09:36 AM

so wrong
its an Am chord
and
|----------------------|
|----------------------|
|-------2----4----5----|
|----------------------|
|----------------------|
|----------------------|

----------------------|------------------------|----------------------|
--3g5--------6--------|-------------------8----|--6------5-3-5--------|
----------------------|-------4----5s-7--------|----------------------|
----------------------|------------------------|----------------------|
----------------------|------------------------|----------------------|
----------------------|------------------------|----------------------|

------------------------|----------------------|--------------------|
-----------------3g5----|--5------6--3---------|--------------------|
-------4----5-----------|-------------------5--|--4--------2--------|
------------------------|----------------------|--------------------|
------------------------|----------------------|--------------------|
------------------------|----------------------|--------------------|

-----------------------|----------|----------------------|--------------5---------|
-----------------------|--1-------|----------------------|--3g5----8---------6----|
--2------2s--4----1----|---2------|-------4----5----5----|------------------------|
-----------------------|----2-----|--2-------------------|------------------------|
-----------------------|-----0----|----------------------|------------------------|
-----------------------|----------|----------------------|------------------------|
that looks better

+2 reply
Ethnicx 87 Jul 03, 2009 06:08 AM

It's in standard D? lol no

0 reply
G0dzilla 10 Jul 12, 2009 08:09 PM

I was hoping to find the fast guitar intro, about 2:45 in, oh well. somebody tab that though!!

guest
You may want to rate the tab now too:
select rating
Wanna post a correction for this tab? Suggest correction