Oops, an error
Loading. Please wait.

The Best Of Times Tab

version 6
version 6

Intro

Interactive

61 views 3 this week
no commentswrite comment
1 2 3 4 5
3 more votes to show rating
add to favorites
launch autoscroll
font size
0
reset
how to read this tab
guitar tuner
Autoscroll
slow
fast
+/-
esc
set tempo
stop
Help us to improve Ultimate-Guitar.com Take our survey!
×
Author
Difficulty
novice
About this tab version
I think it's correct. John Petrucci doesn't play on one String, he uses an e major chord at the end and the vibrato is a matter of the personal taste. Was this info helpful? Yes No
The Best of Times (Intro)
by
Dream Theater

Chords diagram:

Am: x02210
E:  x76455


[Intro]

e|-----------|----------------------|------------------------------------------|
B|-----1/5-6-|------8--6--5--3--5---|---1--1/5--5--6--3--1------------------1--|
G|-2-4-------|-4/7------------------|-4---------------------4--2--2/4--1----2--|
D|-----------|----------------------|---------------------------------------2--|
A|-----------|----------------------|---------------------------------------0--|
E|-----------|----------------------|------------------------------------------|

e|------------------------------------------|----------------------------------|
B|------------------------10----------------|----------8--6--5-----------------|
G|-------4--5--5/9--9/12------10---9h10p9\7-|--4--4/7-----5--5--7--------------|
D|-6--7-------------------------------------|-------------------6--7-----------|
A|------------------------------------------|----------------------------------|
E|------------------------------------------|----------------------------------|

e|------------------------------------|---------|
B|----------------------------------4-|--5------|
G|-------4--5--5/9--9--7--5--5/7--4---|--4------|
D|-6--7-------------------------------|--6------|
A|------------------------------------|--7------|
E|------------------------------------|---------|



************************************

| /  Slide up
| h  Hammer-on
| p  Pull-off
| \  Slide down

************************************
Suggest correction
Give kudos to tab author, rate the tab!
1 2 3 4 5
comments
print report bad tab
guest
You may want to rate the tab now too:
select rating
Wanna post a correction for this tab? Suggest correction