Oops, an error
Loading. Please wait.

The Big Melody Bass Tab

1,686 views 3 this week
no commentswrite comment
1 2 3 4 5
please rate
add to favorites
launch autoscroll
font size
0
reset
guitar tuner
Autoscroll
slow
fast
+/-
esc
set tempo
stop
Help us to improve Ultimate-Guitar.com Take our survey!
×
he Big Melody
Dream Theater

If you have the Change Of Seasons CD you'll find the Big Melody. It consists of In The 
by Pink Floyd, Carry On My Wayward Son by Kansas, Bohemian Rhapsody by Queen, Lovin' 
Squeezin' by Journey, Cruise Control by The Dixie Dregs and Turn It On Again by Genesis.

in this tab Cruise control is kinda shakey so feel free to correct me!

In The Flesh? - Pink Floyd

|--------------------------------------|--------------------------------|
|--------------------------------------|--------------------------------|
|-----------------------------0--2--3--|--10\5-----7--------------------|
|--0--0--------2--------3--------------|--------------0--0-----0--0-----|


                                    4x
||----------------------------------||-----------------------------|
||*--------------------------------*||-----------------------------|
||*-----------7-----------------7--*||-----4--2-----------5--4--2--|
||---0--0-----------0--0-----0------||--5--------5--4--2-----------|


|-------------------------------|
|-------------------------------|
|-------4--2-----------5--4--2--|
|----5--------5--4--2-----------|


|--------------------------------------------------------------------|
|--------------------------------------------------------------------|
|-----4--2-----0--1--2-----5--4--2--3--4-----7--5--4--2--------------|
|--5-----------------------------------------------------0-----0--0--|

--
(no bass during verses)
--

|-----------------------------|-----------------------------------------|
|-----------------------------|-----------------------------------------|
|-----4--2-----------5--4--2--|-----4--2-----------5--4--5--4--2--4--2--|
|--5--------5--4--2-----------|--5--------5--4--2-----------------------|


|--------------------------------------------------------------------|
|--------------------------------------------------------------------|
|-----4--2-----0--1--2-----5--4--2--3--4-----7--5--4--2--------------|
|--5-----------------------------------------------------0-----0--0--|

Carry On My Wayward Son - Kansas


|------------|-----------------|------|
|------------|---------5-------|------|
|-------3----|---5-5/7---7-5---|-5--5-|2x
|-5-3-5---5-3|-5-------------8-|--3--2|


|--------------------|--------|--------------------|-------|
|---7-5--------------|--------|---7-5--------------|-------|
|-------7-5-------5--|---5-3--|-------7-5-------5--|---3/5-|2x
|-5---------8-5-8---3|-5------|-5---------8-5-8---3|-5-----|


|----------|--------|----------|---------|
|----------|-------5|----------|---------|
|---7-5-4--|-----5--|---7-5-4-2|-5------3|2x
|-0-------7|-5-3----|-0--------|---2-3-4-|

|--------------------|--------|--------------------|-------|
|---7-5--------------|--------|---7-5--------------|-------|
|-------7-5-------5--|---5-3--|-------7-5-------5--|---3/5-|2x
|-5---------8-5-8---3|-5------|-5---------8-5-8---3|-5-----|

|----------|--------|----------|---------|
|----------|-------5|----------|---------|
|---7-5-4--|-----5--|---7-5-4-2|-5------3|
|-0-------7|-5-3----|-0--------|---2-3-4-|

|------------|-----------------|------|
|------------|---------5-------|------|
|-------3----|---5-5/7---7-5---|-5--5-|2x
|-5-3-5---5-3|-5-------------8-|--3--2|

|--------|--------------|
|--------|--------5-----|
|-----7-7|------5---5-7-|4x
|-0-0----|0-5-7---------|

|------------------|---------------|
|----4-2-------4-2-|-2-------------|
|--------4--------4|---0-0-1-2-----|4x
|-2-2------2-2-----|-----------0-0-|

|--------|--------------|
|--------|--------5-----|
|-----7-7|------5---5-7-|4x
|-0-0----|0-5-7---------|

|------------------|---------------|
|----4-2-------4-2-|-2-------------|
|--------4--------4|---0-0-1-2-----|4x
|-2-2------2-2-----|-----------0-0-|

Bohemian Rhapsody - Queen


-----|------|------|
-----|------|------|
14---|-11---|--13--|
-----|------|------|

|---|-------------|----------------|---------------|
|12-|-------------|----------------|---------------|
|8--|-6--------5-6|-6----------5-6-|-6---------5-6-|
|---|---3-4-6-8---|---3-4--6-8-----|---3-4-6-8-----|

              So you think you can stone me and spit in my eye._______
F             Bb                                Eb
-------------|---------------------|----------------------|----------------|
-------------|---------------------|----------------------|----------------|
8------------|---------------------|-------6----6--6--6-6-|----------------|
--5-6-8-10-8-|-6--6--6-6--6--6--6-6|-6--6----6------------|6-6-6-6-6-6666-6|


|-----------------6~|
|---8p6---6---------|
|-------8---8p6/4---|
|-------------------|

|--------------------|-------------------------|------------|
|--------------------|-------------------------|------------|
|--------------------|------------6--6-6-6-----|------------|
|--6--6-6-6--6--6-6-6|-6--6-6-6----------------|-4-4-4--4--3|

Oh______________   Ba  -  by,          Can't do this to me  ba  -  by
F                  Bb                  F                    Bb
------------------|-------------------|-------------------|----------------|
------------------|-------------------|-------------------|----------------|
------------------|1--1-1-1--1--1-1-1-|-------------------|1--1-1-1--1--111|
1--1-1-1--1--1-1-1|-------------------|1--1-1-1--1--1-1-1-|----------------|

Just gotta get out,             Just gotta get right out of here
F                  Bb           F              Bb           Eb
-------------------------------|---------------------------|---------------|
-------------------------------|---------------------------|---------------|
-------------------1---1--1--1-|---------------1---1--1--1-|6-----------56-|
1---1--1--1--1-----------------|1---1--1--1----------------|--3-4-6-8-6----|

-----------|-------------|-----------------|--------------------------|
-----------|-------------|-----------------|--------------------------|
6----------|-6-----------|-8-----------7-8-|-9-11-13-11-13-15-13-15-16|
--3-4-6-8-6|---3-4-6-8-6-|---5-6-8-10------|--------------------------|

-----|------|------|
-----|------|------|
14---|-11---|--13--|
-----|------|------|

-----------|--------|-------------------------|----------------------------|
-----------|--------|--3----2------1----0-----|-------------..---8--8-8----|
6----5---5-|-3------|-------------------------|-1--1-1-1--1.sl.6----------8|
-----------|--------|-------------------------|--------------------------6-|

Eb          Bb/D         Cmadd9                 Fm  Fm/E Ab/Eb Dm7dim5
------------------------|------------------5---|-----------------------|
------------------------|----------__----5---5-|3-----2-----1-----0----|
6---6---6-6-5--5-5-5--5-|3----3--3-  -3--------|-----------------------|
------------------------|----------------------|-----------------------|

Db    Db/C Db/Cb Dm7dim5   A
-------------------------|----|
-------------------------|-.--|
4----4--3----2-----1-----|-0--|
-------------------------|----|

Lovin', Touchin', Squeezin' - Journey

|-------------|----------------|
|-------------|----------------|
|-0-00-00-00-0|0-00-00-0-5-0-3-|
|-------------|----------------|

Verse
|--------------|------------|------------2-4-|-----------2--|
|.-------------|------------|-0-00-00-0-4----|-0-00-00-04-4-|
|.-0-00-00-00-0|0-00-00-0024|----------------|--------------|
|--------------|------------|----------------|--------------|
                               1.
|-------------|--------------|--------------|---------------|
|-------2-22-2|--------------|--------------|--------------.|
|-0-00-0------|--------------|---00-00-0-503|-0-00-00-00-0-.|
|-------------|-3-33-33-33-3-|-3------------|---------------|

2, 3
|-----------------|
|-----------------|
|---00-0-000-013--|
|-3---------------|

Chorus
|--------------|---------------|---------------|--------------|
|--------------|---------------|---------------|--------------|
|--------------|-0-00-00-0-01--|---------------|-0-00-00-0-01-|
|-2-22-22-2-234|-------------3-|-2-22-22-2-234-|-------------3|
1.
|----------------|--------------------|
|----------------|--------------------|Go Back to verse
|----------------|-------------0-5-0-3|
|-333-333-333-321|-000-000-0-0--------|
2.
|-------------|--------------|-----------|
|-------------|--------------|-----------|
|-------------|-0-00-00-0-01-|-----------|
|-3-33-33-33-3|-------------3|-2-2-222-3-|

Cruise Control - Dixie Dregs
|-------------------|
|----------01234----|
|-3----0123---------| Do this until change
|--0123-------------|

|---------------|
|----3456543----|
|-345-------53--|
|-------------1-|

Do A Little Fill

|-------|
|-------|
|-14-14-|
|-------|

Turn It On Again - Genesis

|-------------|
|-------------|
|-------------| Hold steady B until the last notes
|-77777777...-|

|-----|
|-9-9-|
|-----|
|-----|

End
Suggest correction
Give kudos to tab author, rate the tab!
1 2 3 4 5
comments
print report bad tab
guest
You may want to rate the tab now too:
select rating
Wanna post a correction for this tab? Suggest correction