Oops, an error
Loading. Please wait.

The Bigger Picture Bass Tab

version 1
version 1

Whole song

Interactive

1,924 views 1 this week
1 commentread comment
1 2 3 4 5
1 last vote to show rating
add to favorites
launch autoscroll
font size
0
reset
guitar tuner
Autoscroll
slow
fast
+/-
esc
set tempo
stop
Help us to improve Ultimate-Guitar.com Take our survey!
×
Author
Difficulty
intermediate
"The Bigger Picture" by Dream Theater (Dream Theater - 2013)

Bass guitar played by John Myung

5-string (standard tuning)

Tabbed by zerushfreake211

Email me at ben.smyth@live.ca if you have any questions.

Enjoy :)

G|-------|----|-------|----|-------|----|-------|-----------------|
D|-------|----|-------|----|-------|----|-------|-----------------|
A|-------|----|-------|----|-------|----|-------|-3-2-0-----------|
E|-0-----|-3--|-------|----|-0-----|-3--|-------|-------3-2-3-2---|
B|-------|----|-0-----|-3--|-------|----|-3-----|---------------3-|

G|-------|----|-------|----|-------|----|-------|---------|
D|-------|----|-------|----|-------|----|-------|---------|
A|-------|----|-------|----|-------|----|-------|---------|
E|-0-----|-3--|-------|----|-0-----|-3--|-2-----|-5---7---|
B|-------|----|-0-----|-3--|-------|----|-------|---------|

G|----------------|
D|----------------|
A|----------------|
E|-0--------------|
B|----------------|

                x11
G|----------------|
D|----------------|
A|----------------|
E|----------------|
B|----------------|

1:14
"If the candle lights this crooked path...
G|-------|-------|-------|-------|-------|-------|-------|-------|
D|-------|-------|-------|-------|-------|-------|-------|-------|
A|-------|-------|-------|-------|-------|-------|-------|-------|
E|-3-----|-------|-3-----|-------|-3-----|-7-----|-8-----|-1-----|
B|-------|-------|-------|-------|-------|-------|-------|-------|

G|-------|-------|----------|------------------|
D|-------|-------|----------|------------------|
A|-------|-------|-7---\4---|-3--3--3--3--0----|
E|-6-----|-5-----|----------|------------------|
B|-------|-------|----------|------------------|

"Shed your light on me..."
G|---------|------|---------|------|---------|------|-------|--------------|
D|---------|------|---------|------|---------|------|-------|--------------|
A|---------|------|---------|------|---------|------|-------|--------------|
E|-0---0---|-3--3-|---------|------|-0---0---|-3--3-|-------|------2-3-2---|
B|---------|------|-0---0---|-3--3-|---------|------|-3-----|-1----------3-|

G|---------|------|---------|------|---------|------|-------|---------|
D|---------|------|---------|------|---------|------|-------|---------|
A|---------|------|---------|------|---------|------|-------|---------|
E|-0---0---|-3--3-|---------|------|-0---0---|-3--3-|-2-----|-5---7---|
B|---------|------|-0---0---|-3--3-|---------|------|-------|---------|

G|----------------|
D|----------------|
A|----------------|
E|-0--------------|
B|----------------|

"Like a moth burned by the fire..."
G|-------------------------------|-------------------------------|
D|-------------------------------|-------------------------------|
A|-------------/7\-------2-0-----|-------------/7\---------------|
E|-0-0-0-0-0-0-----0-0-0-----3-2-|-0-0-0-0-0-0-----0-0-0-3-2-0---|
B|-------------------------------|-----------------------------3-|

G|-----------------------------|-----------------------------|
D|-----------------------------|-----------------------------|
A|-------------3\--------------|-------------3\--------------|
E|----------------------3-2-3--|-----------------------------|
B|-1-1-1-1-1-1----1-1-1--------|-1-1-1-1-1-1----1-1-1-1/3-3--|

G|-------------------------------|----------------------------|
D|-------------------------------|----------------------------|
A|-------------/7\-------2-0-----|----------------------------|
E|-0-0-0-0-0-0-----0-0-0-----3-2-|-------------7--------7-8-7-|
B|-------------------------------|-0-0-0-0-0-0----0-0-0-------|

G|-------------------------|------------------------2-|
D|-------------------------|---------------------235--|
A|---------------------2-3-|---------0---320--245-----|
E|---------0---3---355-----|-1---3--------------------|
B|-1---3-------------------|--------------------------|

"With each treasure found..."
G|-----------------------------------------------------------------|
D|---------------8---7\5-5-3453---------7---------8-10-------------|
A|-------8----------------------------8---8-----8------8-7---------|
E|-6-5-6---6-5-6---6------------6-5-6-------6-5------------5-3-2-1-|
B|-----------------------------------------------------------------|

G|---------------------------------|
D|---------------------------------|
A|-------------4-------------------|
E|-0-----------------------5---3-2-|
B|-----4---3-------1---0-----------|

"Shed your light on me..."
G|---------|------|---------|------|---------|------|-------|
D|---------|------|---------|------|---------|------|-------|
A|---------|------|---------|------|---------|------|-------|
E|-0---0---|-3--3-|---------|------|-0---0---|-3--3-|-------|
B|---------|------|-0---0---|-3--3-|---------|------|-3-----|

G|-----------------|
D|-----------------|
A|-3-2-0-----------|
E|-------3-2-3-2---|
B|---------------3-|

G|---------|------|---------|------|---------|------|-------|---------|
D|---------|------|---------|------|---------|------|-------|---------|
A|---------|------|---------|------|---------|------|-------|---------|
E|-0---0---|-3--3-|---------|------|-0---0---|-3--3-|-2-----|-5---7---|
B|---------|------|-0---0---|-3--3-|---------|------|-------|---------|

G||---------------|---------------|---------------|---------------|
D||---------------|---------------|---------------|---------------|
A||-4--4--44-4--4-|-7--7--77-7--7-|---------------|---------------|
E||---------------|---------------|-7--7--77-7--7-|-2--2--22-2--2-|
B||---------------|---------------|---------------|---------------|
                                                                   x2
G|---------------|---------------|---------------|---------------||
D|---------------|---------------|---------------|---------------||
A|-4--4--44-4--4-|---------------|---------------|---------------||
E|---------------|-5--5--55-5--5-|-7--7--77-7--7-|-4--4--44-4--4-||
B|---------------|---------------|---------------|---------------||

"What if, caught in a moment..."
G|---------------|---------------|---------------|----------|
D|---------------|---------------|---------------|----------|
A|---------------|---------------|---------------|----------|
E|---------------|-0--0--00-0--0-|---------------|-2--2--22-|
B|-2--2--22-2--2-|---------------|-0--0--00-0--0-|----------|

G|-----------------|
D|-----------------|
A|-----------------|
E|-2-0-5-4-2-------|
B|-----------5-4-0-|

G|---------------|---------------|-------------|-----------------|
D|---------------|---------------|-------------|-----------------|
A|---------------|---------------|-------------|-------3-6-------|
E|---------------|---------------|-4---2---0---|---3-5-----5-----|
B|-2--2--22-2--2-|-0--0--00-0--0-|-------------|-4-----------4-0-|

"Would you talk me off the ledge..."
G|---------------|---------------------------------|
D|---------------|---7-6-7-------4-----------------|
A|---------------|-0-------7---0---0-5-4-0-7-5-4-0-|
E|---------------|-----------6---------------------|
B|-3--3--33-3--3-|---------------------------------|

G|-------------|----------------------|---------------|---------------|
D|-------------|----------------------|---------------|---------------|
A|-------------|-----------3--2-------|-2--2--22-2--2-|-2--2--22-2--2-|
E|-0-----------|-----------------5--0-|---------------|---------------|
B|-----3---2---|-3--4--1--------------|---------------|---------------|

G|----------------|
D|----------------|
A|-2--------------|
E|----------------|
B|----------------|

                 x4
G|----------------|
D|----------------|
A|----------------|
E|----------------|
B|----------------|

G|-------|-------|-------|-------|-------|-------|-------|
D|-------|-------|-------|-------|-------|-------|-------|
A|-------|-------|-------|-------|-------|-------|-------|
E|-3-----|-------|-3-----|-------|-3-----|-------|-------|
B|-------|-------|-------|-------|-------|-0-----|-1-----|

                                        x2
G||-----------------|-------------------||
D||-----------------|-------------------||
A||-----------------|-------------------||
E||-3-3-3-3-3-3-3-3-|-3-3-3-3-3-3-3-3-3-||
B||-----------------|-------------------||

G|-----------------|-----------------|-----------------|-----------------|
D|-----------------|-----------------|-----------------|-----------------|
A|-----------------|-2-2-2-2-2-2-2-2-|-3-3-3-3-3-3-3-3-|-3-3-3-3-3-3-3-3-|
E|-3-3-3-3-3-3-3-3-|-----------------|-----------------|-----------------|
B|-----------------|-----------------|-----------------|-----------------|

"You look but cannot see..."                                      x2
G||-------|-------|-------|-------|-------|-------|-------|-------||
D||-------|-------|-------|-------|-------|-------|-------|-------||
A||-------|-------|-------|-------|-------|-2-----|-3-----|-------||
E||-3-----|-------|-3-----|-------|-3-----|-------|-------|-------||
B||-------|-------|-------|-------|-------|-------|-------|-------||

G|-------|-------|-------|-------------|-------|-------|-------|-------|
D|-------|-------|-------|-------------|-------|-------|-------|-------|
A|-------|-------|-2-----|-2--2--2--2--|-------|-------|-------|-2-----|
E|-3-----|-------|-------|-------------|-0-----|-------|-------|----0--|
B|-------|-------|-------|-------------|-------|-3-----|-1-----|-------|

"When I see the distant lights..."
G|----------|----------|-------|---------|---------|---------|
D|----------|----------|-------|---------|---------|---------|
A|----------|-1-----1--|-0-----|---------|-6-5-3---|---------|
E|-1-----1--|----------|-------|---------|-------6-|-5---5---|
B|----------|----------|-------|-3---4---|---------|---------|

G|----------------|
D|----------------|
A|----------------|
E|-3--------------|
B|----------------|
Suggest correction
Give kudos to tab author, rate the tab!
1 2 3 4 5
comments
print report bad tab
1 comment total.
0 reply
nick.deep.37 10 Jul 21, 2014 10:03 AM

very nice tab! keep working

guest
You may want to rate the tab now too:
select rating
Wanna post a correction for this tab? Suggest correction