Oops, an error
Loading. Please wait.

The Count Of Tuscany bass

version 1
version 1
3,319 views 12 this week
1 commentread comment
1 2 3 4 5
x 3
add to favorites
×
Save as Personal and add changes to this tab that will be seen only by you. Learn more ›
×
You can save this tab as Personal to edit and correct it or add notes. All changes will be seen only by you. Learn more »
launch autoscroll
font size
0
reset
guitar tuner
backing track
0:00
0:00
edit
Autoscroll
slow
fast
+/-
esc
set tempo
stop
Author
Difficulty
The Count of Tuscany
Dream Theater
Black Clouds and Silver Linings

Firstly, I realise John Myung uses a six-string bass most of the time, 
but not all of us are lucky enough to own one. 
CoT can be easily played on just four strings, so I have arranged it accordingly.  
Secondly, I must give massive credit to UG usernames PJ and GusG, 
to whose Guitar Pro efforts I am hugely indebted.  
I simply made a few corrections and arranged this song for four-string bass. Enjoy!



Enter with distorted guitar at 1:24
     W                H        Q.      
G||-----------------------------------|
D||-----------------------------------|
A||-----------------------------------|
E||--0----------------L--------L------|
 
 
  W                W                Q       W                H        Q.      
-----------------------------------------|-----------------------------------|
-----------------------------------------|-----------------------------------|
-----------------------------------------|-----------------------------------|
--0----------------L----------------L----|--0----------------L--------L------|
 
 
  W                W                Q       Q.     Q.     Q.     Q.     Q.      
-----------------------------------------|-------------------------------------|
-----------------------------------------|-------------------------------------|
-----------------------------------------|-------------------------------------|
--0----------------L----------------L----|--0------2------0------2------4------|
 
 
  Q.     Q.     Q.     Q.     Q.     Q.      
--------------------------------------------|
--------------------------------------------|
-------------------------------------1------|
--0------2------0------2------4-------------|
 
 
  Q.     Q.     Q.     Q.     Q.      
-------------------------------------|
-------------------------------------|
-------------------------------------|
--0------2------0------2------4------|
 
 
  Q.     Q.     Q.     Q.     Q.     Q.      
--------------------------------------------|
--------------------------------------------|
-------------------------------------1------|
--0------2------0------2------4-------------|
 
2:02 
  E.  E.  E  E  E  Q.     Q.     E  E  E   
------------------------------------------|
-------------4--3----------------1--3--4--|
--2-------4--------2------4---------------|
------2-----------------------------------|
 
 
  E.  E.  E  E  E  S S E  E  E.  E.  Q.      
-----------------------4--3--1--------------|
-------------4--3----4---------------1------|
--2-------4--------2-------------4----------|
------2-------------------------------------|
 
 
  E.  E.  E  E  E  Q.     Q.     E  E  E   
------------------------------------------|
-------------4--3----------------1--3--4--|
--2-------4--------2------4---------------|
------2-----------------------------------|
 
 
  E.  E.  E  E  E  S S E  E  E.  E.  Q.      
-----------------------4--3--1--------------|
-------------4--3----4---------------1------|
--2-------4--------2-------------4----------|
------2-------------------------------------|
 
2:19 
  Q.     Q.     Q.     Q.     Q.      
-------------------------------------|
-------------------------------------|
-------------------------------------|
--0------2------0------2------4------|
 
 
  Q.     Q.     Q.     Q.     Q.     Q.      
--------------------------------------------|
--------------------------------------------|
-------------------------------------1------|
--0------2------0------2------4-------------|
 
 
  Q.     Q.     Q.     Q.     Q.      
-------------------------------------|
-------------------------------------|
-------------------------------------|
--0------2------0------2------4------|
 
 
  Q.     Q.     Q.     Q.     Q.     Q.      
--------------------------------------------|
--------------------------------------------|
-------------------------------------1------|
--0------2------0------2------4-------------|
 
 2:37
  E.  E  S E  E  E  E.  E  S E  E  E     E.  E  S E  E  E  E.  E  S E  E  E   
--------------------------------------|--------------------------------------|
--------------------------------------|--------------------------------------|
--------------------------------------|--2---2--2-2--2--2--2---2--2-2--2--2--|
--4---4--4-4--4--4--4---4--4-4--4--4--|--------------------------------------|
 
 
  E.  E  S E  E  E  E.  E  S E  E  E     E.  E  S E  E  E  E.  E  S E  E  E   
--------------------------------------|--------------------------------------|
--------------------------------------|--------------2-----------------2-----|
--------------------------------------|--------------------------------------|
--2---2--2-2--2--2--2---2--2-2--2--2--|--0---0--0-0-----0--0---0--0-0-----0--|
 
 
  E.  E  S E  E  E  E.  E  S E  E  E     E.  E  S E  E  E  E.  E  S E  E  E   
--------------------------------------|--------------------------------------|
--------------------------------------|--------------------------------------|
--------------------------------------|--1---1--1-1--1--1--2---2--2-2--2--2--|
--4---4--4-4--4--4--4---4--4-4--4--4--|--------------------------------------|
 
 
  E.  E  S E  E  E  E.  E  S Q.        E.  E  S E  E  E  E  E  E  E  E  E   
------------------------------------|--------------------------------------|
------------------------------------|--------------------------------------|
------------------------------------|--------------------------------------|
--0---0--0-0--0--0--0---0--0-2------|--0---0--0-0--0--0--0--0--0--2--2--2--|
 
 3:03
  S S S S S S S S S S S S S S S S S S S S S S S S  
--------------------------------------------------|
--------------------------------------------------|
--------------------------------------------------|
--3-3-3-3-3-3-3-3-3-3-3-3-3-3-3-3-3-3-5-5-5-5-5-5-|
 
 
  S S S S S S S S S S S S S S S S S S S S S S S S  
--------------------------------------------------|
--------------------------------------------------|
--------------------------------------------------|
--3-3-3-3-3-3-3-3-3-3-3-3-3-3-3-3-3-3-5-5-5-5-5-5-|
 
 
  S S S S S S S S S S S S S S S S S S S S S S S S  
--------------------------------------------------|
--------------------------------------------------|
--------------------------------------------------|
--6-6-6-6-6-6-6-6-6-6-6-6-6-6-6-6-6-6-8-8-8-8-8-8-|
 
 
  S S S S S S S S S S S S S S S S S S S S S S S S  
--------------------------------------------------|
--------------------------------------------------|
--------------------------------------------------|
--6-6-6-6-6-6-6-6-6-6-6-6-6-6-6-6-6-6-8-8-8-8-8-8-|
 
 
  S S S S S S S S S S S S S S S S S S S S S S S S S S S S  
--------------------------7-4-----------------------------|
------------------------------6-5-6-8-5-------------------|
----------------------------------------8-5-4-5-7-5-3-2---|
--7-7-7-7-7-7-7-7-7-7-7-7-------------------------------3-|
 
 3:19
  Q    E  Q    Q    Q    E     Q    E  Q    Q    E   
----------------------------|-----------------------|
----------------------------|-----------------------|
--3-------3----3----3-------|--3-------3----3-------|
----------------------------|-----------------------|
 
 
  Q    E  Q    Q    Q    E     Q    E  Q    Q    E   
----------------------------|-----------------------|
----------------------------|-----------------------|
--3-------3----3----3-------|--3-------3----3-------|
----------------------------|-----------------------|
 
 
  Q    E  Q    Q    Q    E     Q    E  Q    Q    E   
----------------------------|-----------------------|
----------------------------|-----------------------|
--3-------3----3----3-------|--3-------3----3-------|
----------------------------|-----------------------|
 
 
  Q    E  Q    Q    Q    E     Q    E  Q    Q    E   
----------------------------|-----------------------|
----------------------------|-----------------------|
--3-------3----3----3-------|--3-------3----3-------|
----------------------------|-----------------------|
 
 
  Q    E  Q    Q    Q    E     Q    E  Q    Q    E   
----------------------------|-----------------------|
----------------------------|-----------------------|
--3-------3----3----3-------|--3-------3----3-------|
----------------------------|-----------------------|
 
 
  Q    E  Q    Q    Q    E     Q    E  Q    Q    E   
----------------------------|-----------------------|
----------------------------|-----------------------|
--3-------3----3----3-------|--3-------3----3-------|
----------------------------|-----------------------| 
 
  Q    E  Q    Q    Q    E     Q    E  Q    Q    E   
----------------------------|-----------------------|
----------------------------|-----------------------|
--3-------3----3----3-------|--3-------3----3-------|
----------------------------|-----------------------|
 
 
  Q    E  Q    Q    Q    E     Q    E  Q    Q    E   
----------------------------|-----------------------|
----------------------------|-----------------------|
--3-------3----3----3-------|--3-------3----3-------|
----------------------------|-----------------------|
 
 3:43
  E  E  E  E  E  E  E  E  E  E     E  E  E  E  E  E  E  E   
--------------------4--7--5-----|--------------------------|
--------5--4--7--6-----------5--|--8--7--4--6--3--5--------|
--3--6--------------------------|--------------------6--5--|
--------------------------------|--------------------------|
 
 
  E  E  E  E  E  E  E  E  E  E     E  E  E  E  E  E  E  E   
--------------------4--7--5-----|--------------------------|
--------5--4--7--6-----------5--|--8--7--4--6--3--5--------|
--3--6--------------------------|--------------------6--5--|
--------------------------------|--------------------------|
 
 
  E  E  E  E  E  E  E  E  E  E     E  E  E  E  E  E  E  E   
--------------------4--7--5-----|--------------------------|
--------5--4--7--6-----------5--|--8--7--4--6--3--5--------|
--3--6--------------------------|--------------------6--5--|
--------------------------------|--------------------------|
 
 
  E  E  E  E  E  E  E  E  E  E     E  E  E  E  E  E  E  E     Q    H         
--------------------4--7--5-----|--------------------------|----------------|
--------5--4--7--6-----------5--|--8--7--4--6--3--5--------|----------------|
--3--6--------------------------|--------------------6--5--|--3-------------|
--------------------------------|--------------------------|----------------|
 
 3:56
  E  E  E  E  E  E  E  E  E  E     E  E  E  E  E  E  E  E   
--------------------------------|--------------------------|
--------------------------------|--------------------------|
--7--------7-----7-----7--------|--7--------7-----7--------|
-----0--0-----0-----0-----0--0--|-----0--0-----0-----0--0--|
 
 
  E  E  E  E  E  E  E  E  E  E     E  E  E  E  E  E  E  E   
--------------------------------|--------------------------|
--------------------------------|--------------------------|
--7--------7-----7-----7--------|--7--------7-----7--------|
-----0--0-----0-----0-----0--0--|-----0--0-----0-----0--0--|
 
 
  E  E  E  E  E  E  E  E  E  E     E  E  E  E  E  E  E  E   
--------------------------------|--------------------------|
--------------------------------|--------------------------|
--7--------7-----7-----7--------|--7--------7-----7--------|
-----0--0-----0-----0-----0--0--|-----0--0-----0-----0--0--|
 
 
  E  E  E  E  E  E  E  E     E  E  E  E  E  E  E  E   
--------------------------|--------------------------|
--------------------------|--------------------------|
--7--------7-----7--------|--7--------7-----7--------|
-----0--0-----0-----0--0--|-----0--0-----0-----0--0--|
 
 
  E  E  E  E  E  E  E  E  E  E     E  E  E  E  E  E  E  E   
--------------------------------|--------------------------|
--------------------------------|--------------------------|
--7--------7-----7-----7--------|--7--------7-----7--------|
-----0--0-----0-----0-----0--0--|-----0--0-----0-----0--0--|
 
 
  E  E  E  E  E  E  E  E  E  E     E  E  E  E  E  E  E  E   
--------------------------------|--------------------------|
--------------------------------|--------------------------|
--7--------7-----7-----7--------|--7--------7-----7--------|
-----0--0-----0-----0-----0--0--|-----0--0-----0-----0--0--|
 
 
  E  E  E  E  E  E  E  E  E  E     E  E  E  E  E  E  E  E   
--------------------------------|--------------------------|
--------------------------------|--------------------------|
--7--------7-----7-----7--------|--7--------7-----7--------|
-----0--0-----0-----0-----0--0--|-----0--0-----0-----0--0--|
 
 
  E  E  E  E  E  E  E  E     E  E  E  E  E  E  E  E     Q    Q    E  E  E  E   
--------------------------|--------------------------|------------------------|
--------------------------|--------------------------|------------------------|
--7--------7-----7--------|--8--------8-----8--------|--2---------1-----------|
-----0--0-----0-----0--0--|-----0--0-----0-----0--0--|------------------2--3--|
 
 
  Q    Q    E  E  E  E     Q    E  Q    E  E  E   
------------------------|------------------------|
------------------------|------------------------|
------------------------|------------------------|
--5---------2-----2--3--|--0-------0-------7--8--|
 
4:22, "Several years ago"
  E  E  E  E  E  E  E  E  E  E     E  E  E  E  E  E  E  E   
--------------------------------|--------------------------|
--------------------------------|--------------------------|
--7--------7-----7-----7--------|--7--------7-----7--------|
-----0--0-----0-----0-----0--0--|-----0--0-----0-----0--0--|
 
 
  E  E  E  E  E  E  E  E  E  E     E  E  E  E  E  E  E  E   
--------------------------------|--------------------------|
--------------------------------|--------------------------|
--7--------7-----7-----7--------|--7--------7-----7--------|
-----0--0-----0-----0-----0--0--|-----0--0-----0-----0--0--|
 
 
  E  E  E  E  E  E  E  E  E  E     E  E  E  E  E  E  E  E   
--------------------------------|--------------------------|
--------------------------------|--------------------------|
--7--------7-----7-----7--------|--7--------7-----7--------|
-----0--0-----0-----0-----0--0--|-----0--0-----0-----0--0--|
 
 
  E  E  E  E  E  E  E  E     E  E  E  E  E  E  E  E   
--------------------------|--------------------------|
--------------------------|--------------------------|
--7--------7-----7--------|--7--------7-----7--------|
-----0--0-----0-----0--0--|-----0--0-----0-----0--0--|
 
 
  E  E  E  E  E  E  E  E  E  E     E  E  E  E  E  E  E  E   
--------------------------------|--------------------------|
--------------------------------|--------------------------|
--7--------7-----7-----7--------|--7--------7-----7--------|
-----0--0-----0-----0-----0--0--|-----0--0-----0-----0--0--|
 
 
  E  E  E  E  E  E  E  E  E  E     E  E  E  E  E  E  E  E   
--------------------------------|--------------------------|
--------------------------------|--------------------------|
--7--------7-----7-----7--------|--7--------7-----7--------|
-----0--0-----0-----0-----0--0--|-----0--0-----0-----0--0--|
 
 
  E  E  E  E  E  E  E  E  E  E     E  E  E  E  E  E  E  E   
--------------------------------|--------------------------|
--------------------------------|--------------------------|
--7--------7-----7-----7--------|--7--------7-----7--------|
-----0--0-----0-----0-----0--0--|-----0--0-----0-----0--0--|
 
                                                       4:44, "Get into my car"
  E  E  E  E  E  E  E  E     E  E  E  E  E  E  E  E     E  E  E  Q.     E  E   
--------------------------|--------------------------|------------------------|
--------------------------|--------------------------|------------------------|
--7--------7-----7--------|--8--------8-----8--------|-----------2------------|
-----0--0-----0-----0--0--|-----0--0-----0-----0--0--|--0--2--3---------3--2--|
 
 
  S S E  E  E  S S E  E  E     E  E  E  Q.     E  E   
----------------------------|------------------------|
----------------------------|------------------------|
----------------------------|-----------3------------|
--0-0-0--0--0--0-0-0--0--0--|--0--2--3---------3--2--|
 
 
  S S E  E  E  S S E  E  E     E  E  E  Q.     E  E   
----------------------------|------------------------|
----------------------------|-----------2------------|
----------------------------|------------------------|
--0-0-0--0--0--0-0-0--0--0--|--0--2--3---------3--2--|
 
 
  S S E  E  E  S S E  E  E     E  E  E  Q.     E  E     E  E  E  Q.     E  E   
----------------------------|------------------------|------------------------|
----------------------------|------------------------|------------------------|
----------------------------|-----------1------------|-----------0------------|
--0-0-0--0--0--0-0-0--0--0--|--0--2--3---------3--2--|--0--2--3---------3--2--|
 
 
  E  E  E  Q.     E  E     S S E  E  E  S S E  E  E     E  E  E  Q.     E  E   
------------------------|----------------------------|------------------------|
------------------------|----------------------------|------------------------|
-----------2------------|----------------------------|-----------5------------|
--0--2--3---------3--2--|--0-0-0--0--0--0-0-0--0--0--|--0--2--3---------3--2--|
 
 
  S S E  E  E  S S E  E  E     E  E  E  Q.     E  E   
----------------------------|------------------------|
----------------------------|------------------------|
----------------------------|-----------4------------|
--0-0-0--0--0--0-0-0--0--0--|--0--2--3---------3--2--|
 
 
  S S E  E  E  S S E  E  E     E  E  E  Q.     E  E     E  E  E  Q.     E  E   
----------------------------|------------------------|------------------------|
----------------------------|------------------------|------------------------|
----------------------------|-----------3------------|-----------1------------|
--0-0-0--0--0--0-0-0--0--0--|--0--2--3---------3--2--|--0--2--3---------3--2--|
 
 
  Q    Q    E  E  E  E     Q    Q    E  E  E  E     Q    E  Q    E  E  E   
------------------------|------------------------|------------------------|
------------------------|------------------------|------------------------|
--2---------1-----------|------------------------|------------------------|
------------------2--3--|--5---------2-----2--3--|--0-------0-------7--8--|
 
5:09, "winding through the hills" 
  E  E  E  E  E  E  E  E  E  E     E  E  E  E  E  E  E  E   
--------------------------------|--------------------------|
--------------------------------|--------------------------|
--7--------7-----7-----7--------|--7--------7-----7--------|
-----0--0-----0-----0-----0--0--|-----0--0-----0-----0--0--|
 
 
  E  E  E  E  E  E  E  E  E  E     E  E  E  E  E  E  E  E   
--------------------------------|--------------------------|
--------------------------------|--------------------------|
--7--------7-----7-----7--------|--7--------7-----7--------|
-----0--0-----0-----0-----0--0--|-----0--0-----0-----0--0--|
 
 
  E  E  E  E  E  E  E  E  E  E     E  E  E  E  E  E  E  E   
--------------------------------|--------------------------|
--------------------------------|--------------------------|
--7--------7-----7-----7--------|--7--------7-----7--------|
-----0--0-----0-----0-----0--0--|-----0--0-----0-----0--0--|
 
 
  E  E  E  E  E  E  E  E     E  E  E  E  E  E  E  E   
--------------------------|--------------------------|
--------------------------|--------------------------|
--7--------7-----7--------|--7--------7-----7--------|
-----0--0-----0-----0--0--|-----0--0-----0-----0--0--|
 
 
  E  E  E  E  E  E  E  E  E  E     E  E  E  E  E  E  E  E   
--------------------------------|--------------------------|
--------------------------------|--------------------------|
--7--------7-----7-----7--------|--7--------7-----7--------|
-----0--0-----0-----0-----0--0--|-----0--0-----0-----0--0--|
 
 
  E  E  E  E  E  E  E  E  E  E     E  E  E  E  E  E  E  E   
--------------------------------|--------------------------|
--------------------------------|--------------------------|
--7--------7-----7-----7--------|--7--------7-----7--------|
-----0--0-----0-----0-----0--0--|-----0--0-----0-----0--0--|
 
 
  E  E  E  E  E  E  E  E  E  E     E  E  E  E  E  E  E  E   
--------------------------------|--------------------------|
--------------------------------|--------------------------|
--7--------7-----7-----7--------|--7--------7-----7--------|
-----0--0-----0-----0-----0--0--|-----0--0-----0-----0--0--|
 
                                                      5:32, "let me introduce"
  E  E  E  E  E  E  E  E     E  E  E  E  E  E  E  E     E  E  E  Q    Q    E   
--------------------------|--------------------------|------------------------|
--------------------------|--------------------------|------------------------|
--7--------7-----7--------|--8--------8-----8--------|----------------4----5--|
-----0--0-----0-----0--0--|-----0--0-----0-----0--0--|--3--6--3--5------------|
 
 
  E  E  E  E  E  Q.        E  E  E  Q    Q    E     E  E  Q    E  E  Q     
------------------------|------------------------|------------------------|
------------------------|------------------------|------------------------|
--L--5--5--5--5--6------|----------------6----5--|--L--2------------------|
------------------------|--3--6--3--5------------|--------4----4--4--4----|
 
 
  E  E  E  Q    Q    E     E  E  E  E  E  E  Q       E  E  E  Q    Q    E   
------------------------|-------------------------|------------------------|
------------------------|-------------------------|----------------5----4--|
----------------4----5--|--L--5--5--5--5--4-------|------------------------|
--3--6--3--5------------|--------------------6----|--3--6--3--5------------|
 
 
  E  E  Q    E  E  Q       E  E  E  Q    Q    E     E  E  E  E  E  Q.      
------------------------|------------------------|------------------------|
--L---------------------|------------------------|------------------------|
-----6--5---------------|----------------4----5--|--L--5--5--5--5--6------|
-------------3--5--4----|--3--6--3--5------------|------------------------|
 
 
  E  E  E  Q    Q    E     E  E  Q    E  E  Q       E  E  E  Q    Q    E   
------------------------|------------------------|------------------------|
------------------------|------------------------|------------------------|
----------------6----5--|--L--2------------------|----------------4----5--|
--3--6--3--5------------|--------4----4--4--4----|--3--6--3--5------------|
 
 
  E  E  E  E  E  E  Q       E  E  E  Q    Q    E     E  E  Q    E  E  Q     
-------------------------|------------------------|------------------------|
-------------------------|----------------5----4--|--L---------------------|
--L--5--5--5--5--4-------|------------------------|-----6--5---------------|
--------------------6----|--3--6--3--5------------|-------------3--5--4----|
 
                     5:53, Chorus: "I, want to stay alive"
  Q    E  Q    E  E  E     Q    E  E  H           Q    E  E   E  E   E   E   
------------------------|----------------------|----------------------------|
------------------------|----------------------|-------------10--8----------|
------------------------|----------------------|--------------------10------|
--3-------3-------3--8--|--L----8--8--8--------|--8----8--8-------------11--|
 
 
   Q     E   E   H            Q     E   E   E   Q     E   
--------------------------|------------------------------|
--------------------------|----------------13------------|
--------------------------|--------------------------11--|
---L----11--11--11--------|--11----11--11------11--------|
 
 
   Q     E   E   H            Q     E   E   Q     E  E   
--------------------------|-----------------------------|
--------------------------|-----------------------------|
---L----11--11--11--------|--11----11--11--11----11--8--|
--------------------------|-----------------------------|
 
 
  Q    E  E   H           Q    E  E   E  E  E  E     Q    E  E  H         
-------------10--------|-------------10-----------|----------------------|
-----------------------|--------------------------|----------------------|
--L----8--8------------|--8----8--8------8--8-----|----------------------|
-----------------------|-----------------------8--|--L----8--8--8--------|
 
 
  Q    E  E   E  E   E   E      Q     E   E   H         
----------------------------|--------------------------|
-------------10--8----------|--------------------------|
--------------------10------|--------------------------|
--8----8--8-------------11--|---L----11--11--11--------|
 
 
   Q     E   E  E   E   E   E      Q     E   E   H         
-------------------------------|----------------13--------|
-------------------------------|--------------------------|
-----------------------10--11--|---L----11--11------------|
--11----11--11--7--11----------|--------------------------|
 
 
   Q     E   E   E   E   E   E      Q     Q.      Q.      
----------------13--11------14--|---L--------------------|
------------------------13------|--------16------15------|
--11----11--11------------------|------------------------|
--------------------------------|------------------------|
 
 
   H        Q    E  E     Q    E  E   H           Q    E  E   E  E   E   E   
-----------------------|-----------------------|----------------------------|
--13--------8----9-----|-------------10--------|-------------10--8----------|
-----------------------|-----------------------|--------------------10------|
--------------------8--|--L----8--8------------|--8----8--8-------------11--|
 
 
   Q     E   E   H            Q     E   E   E   E   E   E   
--------------------------|--------------------------------|
--------------------------|----------------13--------------|
--------------------------|----------------------------11--|
---L----11--11--11--------|--11----11--11------11--11------|
 
 
   Q     E   E   H            Q     E   E   Q     E  E   
----------------13--------|-----------------------------|
--------------------------|-----------------------------|
---L----11--11------------|--11----11--11--11----11--8--|
--------------------------|-----------------------------|
 
 
  Q    E  E  Q    E  E     Q    E  E   E  E   E  E     Q    E  E  H         
------------------------|-------------10--8---------|----------------------|
------------------------|--------------------10-----|----------------------|
--L----8--8--8----8--8--|--8----8--8----------------|----------------------|
------------------------|------------------------8--|--L----8--8--8--------|
 
 
  Q    E  E   E  E   E   E      Q     E   E   H         
----------------------------|--------------------------|
-------------10--8----------|--------------------------|
--------------------10------|--------------------------|
--8----8--8-------------11--|---L----11--11--11--------|
 
 
   Q     E   E  E   E   E   E      Q     E   E   H         
-------------------------------|----------------13--------|
-------------------------------|--------------------------|
-----------------------10--11--|---L----11--11------------|
--11----11--11--7--11----------|--------------------------|
 
 
   Q     E   E   E   E   E   E      H         H         
--------------------------------|----------------------|
--------------------------------|----------------------|
--11----11--11--11--11--11--12--|---L--------12--------|
--------------------------------|----------------------|
 
                                   6:31
   E   E   Q     E   E   E   E     H.           H.            
--------------------------------|----------------------------|
--------------------------------|----------------------------|
--12--12--12----12--12--12--12--|--3------------6------------|
--------------------------------|----------------------------|
 
 
  W                H.           H           H.           H.            
-----------------------------------------|----------------------------|
-----------------------------------------|----------------------------|
--------------------------------1--------|---------------3------------|
--2----------------L---------------------|--1-------------------------|
 
 
  W                Q    Q    Q    Q    Q       H.           H.            
--------------------------------------------|----------------------------|
------------------------4----4--------------|----------------------------|
----------------------------------5----4----|--3------------6------------|
--4----------------L------------------------|----------------------------|
 
 
  W                H.           H           H.           H.            
-----------------------------------------|----------------------------|
--4----------------L------------8--------|----------------------------|
-----------------------------------------|--8------------3------------|
-----------------------------------------|----------------------------|
 
                                              6:48
  W                Q    Q    Q    Q    Q       Q    E  Q    Q    Q    E   
--------------------------------------------|----------------------------|
------------------------4----4--------------|----------------------------|
----------------------------------5----4----|--3-------3----3----3-------|
--4----------------L------------------------|----------------------------|
 
 
  Q    E  Q    Q    E     Q    E  Q    Q    Q    E     Q    E  Q    Q    E   
-----------------------|----------------------------|-----------------------|
-----------------------|----------------------------|-----------------------|
--3-------3----3-------|--3-------3----3----3-------|--3-------3----3-------|
-----------------------|----------------------------|-----------------------|
 
 
  Q    E  Q    Q    Q    E     Q    E  Q    Q    E   
----------------------------|-----------------------|
----------------------------|-----------------------|
--3-------3----3----3-------|--3-------3----3-------|
----------------------------|-----------------------|
 
 
  Q    E  Q    Q    Q    E     Q    E  Q    Q    E   
----------------------------|-----------------------|
----------------------------|-----------------------|
--3-------3----3----3-------|--3-------3----3-------|
----------------------------|-----------------------|
 
 6:58
  E  E  E  E  E  E  E  E  E  E     E  E  E  E  E  E  E  E   
--------------------4--7--5-----|--------------------------|
--------5--4--7--6-----------5--|--8--7--4--6--3--5--------|
--3--6--------------------------|--------------------6--5--|
--------------------------------|--------------------------|
 
 
  E  E  E  E  E  E  E  E  E  E     E  E  E  E  E  E  E  E   
--------------------4--7--5-----|--------------------------|
--------5--4--7--6-----------5--|--8--7--4--6--3--5--------|
--3--6--------------------------|--------------------6--5--|
--------------------------------|--------------------------|
 
 
   (exact same riff, one octave higher)                                   
   E  E   E   E   E   E   E   E   E   E   
--------------------------16--19--17------|
----------17--16--19--18--------------17--|
--15--18----------------------------------|
------------------------------------------|
 
 
   E   E   E   E   E   E   E   E     Q    E  Q    Q    Q    E   
----------------------------------|----------------------------|
--20--19--16--18--15--17----------|----------------------------|
--------------------------18--17--|--3-------3----3----3-------|
----------------------------------|----------------------------|
 
                         7:10, "would you like to see"
  Q    E  Q    Q    E     Q    E  Q    Q    Q    E     Q    E  Q    Q    E   
-----------------------|----------------------------|-----------------------|
-----------------------|----------------------------|-----------------------|
--3-------3----3-------|----------------------------|-----------------------|
-----------------------|--0-------0----0----0-------|--0-------0----0-------|
 
 
  Q    E  Q    Q    Q    E     Q    E  Q    Q    E   
----------------------------|-----------------------|
----------------------------|-----------------------|
----------------------------|-----------------------|
--0-------0----0----0-------|--0-------0----0-------|
 
 
  Q    E  Q    Q    Q    E     Q    E  Q    Q    E     Q    E  Q    Q    E   
----------------------------|-----------------------|-----------------------|
----------------------------|-----------------------|-----------------------|
----------------------------|-----------------------|-----------------------|
--0-------0----0----0-------|--0-------0----0-------|--0-------0----0-------|
 
 
  Q    E  Q    Q    E     Q    E  Q    Q    Q    E     Q    E  Q    Q    E   
-----------------------|----------------------------|-----------------------|
-----------------------|----------------------------|-----------------------|
-----------------------|----------------------------|-----------------------|
--0-------0---------0--|--0-------0----0----0-------|--0-------0----0-------|
 
 
  Q    E  Q    Q    Q    E     Q    E  Q    Q    E   
----------------------------|-----------------------|
----------------------------|-----------------------|
----------------------------|-----------------------|
--0-------0----0----0-------|--0-------0----0-------|
 
 
  Q    E  Q    Q    Q    E     Q    E  Q    Q    E     Q    E  Q    Q    E   
----------------------------|-----------------------|-----------------------|
----------------------------|-----------------------|-----------------------|
----------------------------|-----------------------|-----------------------|
--0-------0----0----0-------|--0-------0----0-------|--0-------0----0-------|
 
                          7:31, "history recalls"
  Q    E  Q    Q    E     E  E  E  E  E  E  E  E     E  E  S S E  E  E  E  E   
-----------------------|--------------------------|---------------------------|
-----------------------|--------------------------|---------------------------|
-----------------------|--2--------2-----2-----2--|---------------2-----------|
--0-------0---------0--|-----0--0-----0-----0-----|--0--0--0-0-0-----0--0--0--|
 
 
  E  E  E  E  E  E  E  E     E  E  S S E  E  E  E  E   
--------------------------|---------------------------|
--------------------------|---------------------------|
--3--------3-----3-----3--|---------------3-----------|
-----0--0-----0-----0-----|--0--0--0-0-0-----0--0--0--|
 
 
  E  E  E  E  E  E  E  E     E  E  S S E  E  E  E  E   
--------------------------|---------------------------|
--------------------------|---------------------------|
--7--------7-----7-----7--|---------------7-----------|
-----0--0-----0-----0-----|--0--0--0-0-0-----0--0--0--|
 
 
  E  E  E  E  E  E  E  E     E  E  E  E  E  E  E  E   
--------------------------|--------------------------|
--------------------------|--------------------------|
--1--------1-----1--------|--0--------0-----0--------|
-----0--0-----0-----0--0--|-----0--0-----0-----0--0--|
 
 
  E  E  E  E  E  E  E  E     E  E  S S E  E  E  E  E   
--------------------------|---------------------------|
--------------------------|---------------------------|
--2--------2-----2-----2--|---------------2-----------|
-----0--0-----0-----0-----|--0--0--0-0-0-----0--0--0--|
 
 
  E  E  E  E  E  E  E  E     E  E  S S E  E  E  E  E   
--------------------------|---------------------------|
--------------------------|---------------------------|
--5--------5-----5-----5--|---------------5-----------|
-----0--0-----0-----0-----|--0--0--0-0-0-----0--0--0--|
 
 
  E  E  E  E  E  E  E  E     E  E  S S E  E  E  E  E   
--------------------------|---------------------------|
--------------------------|---------------------------|
--4--------4-----4-----4--|---------------4-----------|
-----0--0-----0-----0-----|--0--0--0-0-0-----0--0--0--|
 
                                                       7:48, "down the cellars stairs"
  E  E  E  E  E  E  E  E     E  E  E  E  E  E  E  E     E  E  E  Q    Q    E   
--------------------------|--------------------------|------------------------|
--------------------------|--------------------------|------------------------|
--3--------3-----3--------|--1--------1-----1--------|----------------4----5--|
-----0--0-----0-----0--0--|-----0--0-----0-----0--0--|--3--6--3--5------------|
 
 
  E  E  E  E  E  Q.        E  E  E  Q    Q    E     E  E  Q    E  E  Q     
------------------------|------------------------|------------------------|
------------------------|------------------------|------------------------|
--L--5--5--5--5--6------|----------------6----5--|--L--2------------------|
------------------------|--3--6--3--5------------|--------4----4--4--4----|
 
 
  E  E  E  Q    Q    E     E  E  E  E  E  E  Q       E  E  E  Q    Q    E   
------------------------|-------------------------|------------------------|
------------------------|-------------------------|----------------5----4--|
----------------4----5--|--L--5--5--5--5--4-------|------------------------|
--3--6--3--5------------|--------------------6----|--3--6--3--5------------|
 
 
  E  E  Q    E  E  Q       E  E  E  Q    Q    E     E  E  E  E  E  Q.      
------------------------|------------------------|------------------------|
--L---------------------|------------------------|------------------------|
-----6--5---------------|----------------4----5--|--L--5--5--5--5--6------|
-------------3--5--4----|--3--6--3--5------------|------------------------|
 
 
  E  E  E  Q    Q    E     E  E  Q    E  E  Q       E  E  E  Q    Q    E   
------------------------|------------------------|------------------------|
------------------------|------------------------|------------------------|
----------------6----5--|--L--2------------------|----------------4----5--|
--3--6--3--5------------|--------4----4--4--4----|--3--6--3--5------------|
 
 
  E  E  E  E  E  E  Q       E  E  E  Q    Q    E     E  E  Q    E  E  Q     
-------------------------|------------------------|------------------------|
-------------------------|----------------5----4--|--L---------------------|
--L--5--5--5--5--4-------|------------------------|-----6--5---------------|
--------------------6----|--3--6--3--5------------|-------------3--5--4----|
 
                     8:11, Chorus
  Q    E  Q    E  E  E     Q    E  E  H           Q    E  E   E  E   E   E   
------------------------|----------------------|----------------------------|
------------------------|----------------------|-------------10--8----------|
------------------------|----------------------|--------------------10------|
--3-------3-------3--8--|--L----8--8--8--------|--8----8--8-------------11--|
 
 
   Q     E   E   H            Q     E   E   E   Q     E   
--------------------------|------------------------------|
--------------------------|----------------13------------|
--------------------------|--------------------------11--|
---L----11--11--11--------|--11----11--11------11--------|
 
 
   Q     E   E   H            Q     E   E   Q     E  E   
--------------------------|-----------------------------|
--------------------------|-----------------------------|
---L----11--11--11--------|--11----11--11--11----11--8--|
--------------------------|-----------------------------|
 
 
  Q    E  E   H           Q    E  E   E  E  E  E     Q    E  E  H         
-------------10--------|-------------10-----------|----------------------|
-----------------------|--------------------------|----------------------|
--L----8--8------------|--8----8--8------8--8-----|----------------------|
-----------------------|-----------------------8--|--L----8--8--8--------|
 
 
  Q    E  E   E  E   E   E      Q     E   E   H         
----------------------------|--------------------------|
-------------10--8----------|--------------------------|
--------------------10------|--------------------------|
--8----8--8-------------11--|---L----11--11--11--------|
 
 
   Q     E   E  E   E   E   E      Q     E   E   H         
-------------------------------|----------------13--------|
-------------------------------|--------------------------|
-----------------------10--11--|---L----11--11------------|
--11----11--11--7--11----------|--------------------------|
 
 
   Q     E   E   E   E   E   E      Q     Q.      Q.      
----------------13--11------14--|---L--------------------|
------------------------13------|--------16------15------|
--11----11--11------------------|------------------------|
--------------------------------|------------------------|
 
 
   H        Q    E  E     Q    E  E   H           Q    E  E   E  E   E   E   
-----------------------|-----------------------|----------------------------|
--13--------8----9-----|-------------10--------|-------------10--8----------|
-----------------------|-----------------------|--------------------10------|
--------------------8--|--8----8--8------------|--8----8--8-------------11--|
 
 
   Q     E   E   H            Q     E   E   E   E   E   E   
--------------------------|--------------------------------|
--------------------------|----------------13--------------|
--------------------------|----------------------------11--|
---L----11--11--11--------|--11----11--11------11--11------|
 
 
   Q     E   E   H            Q     E   E   Q     E  E   
----------------13--------|-----------------------------|
--------------------------|-----------------------------|
---L----11--11------------|--11----11--11--11----11--8--|
--------------------------|-----------------------------|
 
 
  Q    E  E  Q    E  E     Q    E  E   E  E   E  E     Q    E  E  H         
------------------------|-------------10--8---------|----------------------|
------------------------|--------------------10-----|----------------------|
--L----8--8--8----8--8--|--8----8--8----------------|----------------------|
------------------------|------------------------8--|--L----8--8--8--------|
 
 
  Q    E  E   E  E   E   E      Q     E   E   H         
----------------------------|--------------------------|
-------------10--8----------|--------------------------|
--------------------10------|--------------------------|
--8----8--8-------------11--|---L----11--11--11--------|
 
 
   Q     E   E  E   E   E   E      Q     E   E   H         
-------------------------------|----------------13--------|
-------------------------------|--------------------------|
-----------------------10--11--|---L----11--11------------|
--11----11--11--7--11----------|--------------------------|
 
 
   Q     E   E   E   E   E   E      W                 
--------------------------------|--------------------|
--------------------------------|--------------------|
--11----11--11--11--11--11--12--|---L----------------|
--------------------------------|--------------------|
 
                                   8:48
   E   E   Q     E   E   E   E     H.           H.            
--------------------------------|----------------------------|
--------------------------------|----------------------------|
--12--12--12----12--12--12--12--|--3------------6------------|
--------------------------------|----------------------------|
 
 
  W                H.           H           H.           H.            
-----------------------------------------|----------------------------|
-----------------------------------------|----------------------------|
--------------------------------1--------|---------------3------------|
--2----------------L---------------------|--1-------------------------|
 
 
  W                Q    Q    Q    Q    Q       H.           H.            
--------------------------------------------|----------------------------|
------------------------4----4--------------|----------------------------|
----------------------------------5----4----|--3------------6------------|
--4----------------L------------------------|----------------------------|
 
 
  W                H.           H           H.           H.            
-----------------------------------------|----------------------------|
--4----------------L------------8--------|----------------------------|
-----------------------------------------|--8------------3------------|
-----------------------------------------|----------------------------|
 
 
  W                Q    Q    Q    Q    Q       H.           H.            
--------------------------------------------|----------------------------|
------------------------4----4--------------|----------------------------|
----------------------------------5----4----|--3------------6------------|
--4----------------L------------------------|----------------------------|
 
 
  W                H.           H           H.           H.            
-----------------------------------------|----------------------------|
-----------------------------------------|----------------------------|
--------------------------------1--------|---------------3------------|
--2----------------L---------------------|--1-------------------------|
 
 
  W                Q    Q    Q    Q    Q       H.           H.            
--------------------------------------------|----------------------------|
------------------------4----4--------------|----------------------------|
----------------------------------5----4----|--3------------6------------|
--4----------------L------------------------|----------------------------|
 
 
  W                H.           H           H.           H.            
-----------------------------------------|----------------------------|
--4----------------L------------8--------|----------------------------|
-----------------------------------------|--8------------3------------|
-----------------------------------------|----------------------------|
 
                                               9:22
  W                Q    Q    Q    Q    Q       E  E  E  Q    E  Q    Q    Q     
--------------------------------------------|----------------------------------|
------------------------4----4--------------|----------------------------------|
----------------------------------5----4----|--3--3--3--3----3--3----3----3----|
--4----------------L------------------------|----------------------------------|
 
 
  E  E  E  Q    E  Q    Q    Q    Q    Q    Q     
-------------------------------------------------|
-------------------------------------------------|
-------------------------------------------------|
--2--2--2--2----2--2----2----2----2----2----2----|
 
 
  E  E  E  Q    E  Q    Q    Q     
----------------------------------|
----------------------------------|
----------------------------------|
--1--1--1--1----1--1----1----1----|
 
 
  E  E  E  Q    E  Q    Q    Q    Q    Q    Q     
-------------------------------------------------|
-----------------------------4----4--------------|
---------------------------------------5----4----|
--4--4--4--4----4--4----4------------------------|
 
 
  E  E  E  Q    E  Q    Q    Q     
----------------------------------|
----------------------------------|
--3--3--3--3----3--3----3----3----|
----------------------------------|
 
 
  E  E  E  Q    E  Q    Q    Q    Q    Q    Q     
-------------------------------------------------|
-------------------------------------------------|
-------------------------------------------------|
--2--2--2--2----2--2----2----2----2----2----2----|
 
 
  E  E  E  Q    E  Q    Q    Q     
----------------------------------|
----------------------------------|
----------------------------------|
--1--1--1--1----1--1----1----1----|
 
 
  E  E  E  Q    E  Q    Q    Q    Q    Q    Q     
-------------------------------------------------|
-----------------------------4----4--------------|
---------------------------------------5----4----|
--4--4--4--4----4--4----4------------------------|
 
 9:38, unison solo :D
  E   E   E   E   E   E  E   E   E   E   E   E   E   E   
------------------------------------18------16------15--|
--------------------------------16----------------------|
-----10---------------------14----------14------14------|
--8------11--10--11--10--8------------------------------|
 
 
   E   E   E   E   E   E   E   E   E   E   E   E   E   E   E   
----------11--10--11--10--------------14------13------11------|
------13------------------13------12------12------12------12--|
--13--------------------------12------------------------------|
--------------------------------------------------------------|
 
 
  E   E   E   E   E   E  E   E   E   E   E   E   E   E   
------------------------------------18------16------15--|
--------------------------------16----------------------|
-----10---------------------14----------14------14------|
--8------11--10--11--10--8------------------------------|
 
 
   E   E   E   E   E   E   E   E   E   E   E   E   E   E   E   E   
----------11--10--11--10--------------14------13------11----------|
------13------------------13------12------12------12------12------|
--13--------------------------12------------------------------12--|
------------------------------------------------------------------|
 
 
  E   E   E   E   E   E  E   E   E   E   E   E   E   E   
------------------------------------18------16------15--|
--------------------------------16----------------------|
-----10---------------------14----------14------14------|
--8------11--10--11--10--8------------------------------|
 
 
   E   E   E   E   E   E   E   E   E   E   E   E   E   E   E   
----------11--10--11--10--------------14------13------11------|
------13------------------13------12------12------12------12--|
--13--------------------------12------------------------------|
--------------------------------------------------------------|
 
 
  E   E   E   E   E   E  E   E   E   E   E   E   E   E   
------------------------------------18------16------15--|
--------------------------------16----------------------|
-----10---------------------14----------14------14------|
--8------11--10--11--10--8------------------------------|
 
 
   E   E   E   E   E   E   E   E   E   E   E   E   E   E   E   E   E   E   E   
----------11--10--11--10--------------14------13------11----------------------|
------13------------------13------12------12------12------12------13----------|
--13--------------------------12------------------------------12------14------|
--------------------------------------------------------------------------14--|
 
 
                                                   
  E   E  E   E   E   E  E   E   E   E   E   E   E   E   
------------------------------------18------16------15--|
--------------------------------16----------------------|
-----10---------------------14----------14------14------|
--8------11--10--11--10--8------------------------------|
 
 
   E   E   E   E   E   E   E   E   E   E   E   E   E   E   E   
----------11--10--11--10--------------14------13------11------|
------13------------------13------12------12------12------12--|
--13--------------------------12------------------------------|
--------------------------------------------------------------|
 
 
  E   E   E   E   E   E  E   E   E   E   E   E   E   E   
------------------------------------18------16------15--|
--------------------------------16----------------------|
-----10---------------------14----------14------14------|
--8------11--10--11--10--8------------------------------|
 
 
   E   E   E   E   E   E   E   E   E   E   E   E   E   E   E   E   
----------11--10--11--10--------------14------13------11----------|
------13------------------13------12------12------12------12------|
--13--------------------------12------------------------------12--|
------------------------------------------------------------------|
 
 
  E   E   E   E   E   E  E   E   E   E   E   E   E   E   
------------------------------------18------16------15--|
--------------------------------16----------------------|
-----10---------------------14----------14------14------|
--8------11--10--11--10--8------------------------------|
 
 
   E   E   E   E   E   E   E   E   E   E   E   E   E   E   E   
----------11--10--11--10--------------14------13------11------|
------13------------------13------12------12------12------12--|
--13--------------------------12------------------------------|
--------------------------------------------------------------|
 
 
  E   E   E   E   E   E  E   E   E   E   E   E   E   E   
------------------------------------18------16------15--|
--------------------------------16----------------------|
-----10---------------------14----------14------14------|
--8------11--10--11--10--8------------------------------|
 
 
   E   E   E   E   E   E   E   E   E   E   E   E   E   E   E   E   E   E   E   
----------11--10--11--10--------------14------13------11----------------------|
------13------------------13------12------12------12------12------13----------|
--13--------------------------12------------------------------12------14------|
--------------------------------------------------------------------------14--|
 
                                                           10:16
   E   E   E  E  E  E     Q    Q    Q    Q    Q    Q       W                 
-----------------------|--------------------------------|-------------------|
--10----------7--------|--5-----------------------------|-------------------|
------11---------8-----|-------6----3----6----3---------|--3----------------|
----------11--------9--|---------------------------3----|-------------------|
 
 
  W                   W                   W                   W                 
-------------------|-------------------|-------------------|-------------------|
-------------------|-------------------|--4----------------|-------------------|
--6----------------|--6----------------|-------------------|--4----------------|
-------------------|-------------------|-------------------|-------------------|
 
 
  W                   W                   W                   W                 
-------------------|-------------------|-------------------|--3----------------|
-------------------|--2----------------|--5----------------|-------------------|
--3----------------|-------------------|-------------------|-------------------|
-------------------|-------------------|-------------------|-------------------|
 
 
  W                   W                   W                   W                 
--2----------------|-------------------|-------------------|-------------------|
-------------------|-------------------|-------------------|--2----------------|
-------------------|--4----------------|--3----------------|-------------------|
-------------------|-------------------|-------------------|-------------------|
 
 
  W                   W                   W                   W                 
-------------------|--3----------------|--2----------------|--L----------------|
--5----------------|-------------------|-------------------|-------------------|
-------------------|-------------------|-------------------|-------------------|
-------------------|-------------------|-------------------|-------------------|
 
Long break/acoustic verse/piano riff

Come back in at 15:34 (just after the drums return), at "give me one more chance"
 
  W.                  W.                  W.                  W.                
-------------------|-------------------|-------------------|--4----------------|
-------------------|--6----------------|-------------------|-------------------|
-------------------|-------------------|--2----------------|-------------------|
--4----------------|-------------------|-------------------|-------------------|
 
 
  W.                  W.                  W.                  W.                
-------------------|-------------------|-------------------|-------------------|
-------------------|--4----------------|-------------------|--2----------------|
-------------------|-------------------|-------------------|-------------------|
--2----------------|-------------------|--0----------------|-------------------|
 
 
  W.                  W.                  W.                  W.                
-------------------|-------------------|-------------------|--4----------------|
-------------------|--6----------------|-------------------|-------------------|
-------------------|-------------------|--2----------------|-------------------|
--4----------------|-------------------|-------------------|-------------------|
 
 
  W.                  W.                  W.                  W.                
-------------------|-------------------|-------------------|-------------------|
-------------------|--4----------------|-------------------|--2----------------|
-------------------|-------------------|-------------------|-------------------|
--2----------------|-------------------|--0----------------|-------------------|
 
16:03 , "now wait a minute"
  Q.     Q    E  Q    Q    Q       Q.     Q    E  Q    Q    Q     
--------------------------------|--------------------------------|
--------------------------------|-----------------6--------------|
--------------------------------|--------------------------------|
--4------4----4--4----4----4----|--4------4----4-------4----6----|
 
 
  Q.     Q    E  Q    Q    Q       Q.     Q    E  Q    E  E  E  E   
--------------------------------|----------------------------------|
--------------------------------|----------------------------------|
--2------2----2--2----2----2----|--2------2----2--1----1--2--1-----|
--------------------------------|-------------------------------4--|
 
 
  Q.     Q    E  Q    Q    Q       Q.     Q    E  Q    Q    E  E   
--------------------------------|---------------------------------|
----------------------4---------|---------------------------------|
---------------------------4----|---------------------------------|
--2------2----2--2--------------|--2------2----2--2----2----2--2--|
 
 
  Q.     Q    E  Q    Q    Q       Q.     Q    E  Q    Q    Q     
--------------------------------|--------------------------------|
----------------------2---------|----------------------2---------|
--------------------------------|---------------------------2----|
--0------0----0--0---------0----|--0------0----0--0--------------|
 
 
  Q.     Q    E  Q    Q    Q       Q.     Q    E  Q    Q    Q     
--------------------------------|--------------------------------|
--------------------------------|-----------------6--------------|
--------------------------------|--------------------------------|
--4------4----4--4----4----4----|--4------4----4-------4----4----|
 
 
  Q.     Q    E  Q    Q    Q       Q.     Q    E  Q    Q    Q     
--------------------------------|--------------------------------|
--------------------------------|--------------------------------|
--1------1----1--1----1----1----|--2------2----2--2----2----2----|
--------------------------------|--------------------------------|
 
 
  Q.     Q    E  Q    Q    Q       Q.     Q    E  Q    Q    E  E   
--------------------------------|---------------------------------|
----------------------2---------|---------------------------------|
---------------------------2----|---------------------------------|
--0------0----0--0--------------|--0------0----0--2----2----2--2--|
 
 
  Q.     Q    E  Q    Q    Q       Q.     Q    E  Q    Q    E  E   
--------------------------------|---------------------------------|
----------------------2---------|---------------------------------|
---------------------------2----|---------------------------------|
--0------0----0--0--------------|--0------0----0--2----2----2--2--|
 
 
  Q.     Q    E  Q    Q    Q       Q.     Q    E  Q    Q    Q     
--------------------------------|--------------------------------|
--------------------------------|-----------------6--------------|
--------------------------------|--------------------------------|
--4------4----4--4----4----4----|--4------4----4-------4----6----|
 
 
  Q.     Q    E  Q    Q    Q       Q.     Q    E  Q    E  E  E  E   
--------------------------------|----------------------------------|
--------------------------------|----------------------------------|
--2------2----2--2----2----2----|--2------2----2--1----1--2--1-----|
--------------------------------|-------------------------------4--|
 
 
  Q.     Q    E  Q    Q    Q       Q.     Q    E  Q    Q    E  E   
--------------------------------|---------------------------------|
----------------------4---------|---------------------------------|
---------------------------4----|---------------------------------|
--2------2----2--2--------------|--2------2----2--2----2----2--2--|
 
 
  Q.     Q    E  Q    Q    Q       Q.     Q    E  Q    Q    Q     
--------------------------------|--------------------------------|
----------------------2---------|----------------------2---------|
--------------------------------|---------------------------2----|
--0------0----0--0---------0----|--0------0----0--0--------------|
 
 
  Q.     Q    E  Q    Q    Q       Q.     Q    E  Q    Q    Q     
--------------------------------|--------------------------------|
--------------------------------|-----------------6--------------|
--------------------------------|--------------------------------|
--4------4----4--4----4----4----|--4------4----4-------4----4----|
 
 
  Q.     Q    E  Q    Q    Q       Q.     Q    E  Q    Q    Q     
--------------------------------|--------------------------------|
--------------------------------|--------------------------------|
--1------1----1--1----1----1----|--2------2----2--2----2----2----|
--------------------------------|--------------------------------|
 
 
  Q.     Q    E  Q    Q    Q       Q.     Q    E  Q    Q    E  E   
--------------------------------|---------------------------------|
----------------------2---------|---------------------------------|
---------------------------2----|---------------------------------|
--0------0----0--0--------------|--0------0----0--2----2----2--2--|
 
 
  Q.     Q    E  Q    Q    Q       Q.     Q    E  Q    Q    E  E   
--------------------------------|---------------------------------|
----------------------2---------|---------------------------------|
---------------------------2----|---------------------------------|
--0------0----0--0--------------|--0------0----0--2----2----2--2--|
 
 17:00, guitar solo
  Q.     Q    E  Q    Q    Q       Q.     Q    E  Q    Q    Q     
--------------------------------|--------------------------------|
--------------------------------|-----------------6--------------|
--------------------------------|--------------------------------|
--4------4----4--4----4----4----|--4------4----4-------4----6----|
 
 
  Q.     Q    E  Q    Q    Q       Q.     Q    E  Q    Q    Q     
----------------------4---------|--------------------------------|
---------------------------4----|--------------------------------|
--2------2----2--2--------------|--2------2----2--2----1---------|
--------------------------------|---------------------------4----|
 
 
  Q.     Q    E  Q    Q    Q       Q.     Q    E  Q    Q    Q     
--------------------------------|--------------------------------|
--------------------------------|----------------------4---------|
--------------------------------|---------------------------4----|
--2------2----2--2----2----2----|--2------2----2--2--------------|
 
 
  Q.     Q    E  Q    Q    Q       Q.     Q    E  Q    Q    Q     
--------------------------------|--------------------------------|
----------------------2---------|----------------------2---------|
---------------------------2----|--------------------------------|
--0------0----0--0--------------|--0------0----0--0---------0----|
 
 
  Q.     Q    E  Q    Q    Q       Q.     Q    E  Q    Q    Q     
--------------------------------|--------------------------------|
-----------------6--------------|----------------------2---------|
--------------------------------|--------------------------------|
--4------4----4-------4----4----|--4------4----4--4---------4----|
 
 
  Q.     Q    E  Q    Q    Q       Q.     Q    E  Q    Q    Q 

            
            
Suggest correction
Creating personal tab
Creating personal tab
You can edit any tab online and save it as your Personal.

You can edit, replace or remove any tab part or add personal notes – all changes will be seen only by you.

Personal tabs can be accessed anytime from any device, even offline.
Learn more »
Give kudos to tab author, rate the tab!
1 2 3 4 5
comments
print report bad tab
1 comment total.
0 reply
thijsofbodom 10 Apr 28, 2014 06:45 AM

great tab, I just started learning bass and this tab was really helpfull

guest
You may want to rate the tab now too:
select rating
Wanna post a correction for this tab? Suggest correction