Oops, an error
Loading. Please wait.

The Count Of Tuscany bass

version 2
version 2
376 views 3 this week
no commentswrite comment
1 2 3 4 5
2 more votes to show rating
add to favorites
×
Save as Personal and add changes to this tab that will be seen only by you. Learn more ›
×
You can save this tab as Personal to edit and correct it or add notes. All changes will be seen only by you. Learn more »
launch autoscroll
font size
0
reset
guitar tuner
backing track
0:00
0:00
edit
Autoscroll
slow
fast
+/-
esc
set tempo
stop
Tabbed by: 6METAL6BASSIST6
E-mail: petergriffinav@gmail.com

Tuning: BEADGC

1:23

C|------------------------------------------------------------|
G|------------------------------------------------------------|
D|------------------------------------------------------------|
A|------------------------------------------------------------|
E|0-----------------------------------------------------------|
B|------------------------------------------------------------|

C|------------------------------------------------------------------------|
G|------------------------------------------------------------------------|
D|------------------------------------------------------------------------|
A|------------------------------------------------------------------------|
E|0-----------------------------------------------------------------------|
B|------------------------------------------------------------------------|

C|------------------------------------------------------------|
G|------------------------------------------------------------|
D|------------------------------------------------------------|
A|------------------------------------------------------------|
E|0-----------------------------------------------------------|
B|------------------------------------------------------------|

C|------------------------------------------------------------------------|
G|------------------------------------------------------------------------|
D|------------------------------------------------------------------------|
A|------------------------------------------------------------------------|
E|0-----------------------------------------------------------------------|
B|------------------------------------------------------------------------|

1:43

C|------------------------------------------------------------|.
G|------------------------------------------------------------|.
D|------------------------------------------------------------|.
A|------------------------------------------------------------|.
E|0-----------2-----------0-----------2-----------4-----------|.
B|------------------------------------------------------------|.
                                                               ............. x2
C|------------------------------------------------------------------------|.
G|------------------------------------------------------------------------|.
D|------------------------------------------------------------------------|.
A|------------------------------------------------------------1-----------|.
E|0-----------2-----------0-----------2-----------4-----------------------|.
B|------------------------------------------------------------------------|.

C|------------------------------------------------------------|.
G|------------------------------------------------------------|.
D|----------------4---3-------------------------------3---4---|.
A|2-----------4-----------2-----------4-----------6-----------|.
E|------2-----------------------------------------------------|.
B|------------------------------------------------------------|.
                                                               . x2
C|------------------------------------------------------------|.
G|----------------------------4---3---------------------------|.
D|----------------4---3-----4---------6-----------------------|.
A|2-----------4-----------2-----------------4-----6-----------|.
E|------2-----------------------------------------------------|.
B|------------------------------------------------------------|.

C|------------------------------------------------------------|.
G|------------------------------------------------------------|.
D|------------------------------------------------------------|.
A|------------------------------------------------------------|.
E|0-----------2-----------0-----------2-----------4-----------|.
B|------------------------------------------------------------|.
                                                               ............. x2
C|------------------------------------------------------------------------|.
G|------------------------------------------------------------------------|.
D|------------------------------------------------------------------------|.
A|------------------------------------------------------------1-----------|.
E|0-----------2-----------0-----------2-----------4-----------------------|.
B|------------------------------------------------------------------------|.

2:36

C|------------------------------------------------------------------------------------------------|
G|------------------------------------------------------------------------------------------------|
D|------------------------------------------------------------------------------------------------|
A|------------------------------------------------2-----2---2-2---2---2---2-----2---2-2---2---2---|
E|4-----4---4-4---4---4---4-----4---4-4---4---4---------------------------------------------------|
B|------------------------------------------------------------------------------------------------|

C|------------------------------------------------------------------------------------------------|
G|------------------------------------------------------------------------------------------------|
D|----------------------------------------------------------------2-----------------------2-------|
A|------------------------------------------------------------------------------------------------|
E|2-----2---2-2---2---2---2-----2---2-2---2---2---0-----0---0-0-------0---0-----0---0-0-------0---|
B|------------------------------------------------------------------------------------------------|

C|------------------------------------------------------------------------------------------------|
G|------------------------------------------------------------------------------------------------|
D|------------------------------------------------------------------------------------------------|
A|------------------------------------------------1-----1---1-1---1---1---2-----2---2-2---2---2---|
E|4-----4---4-4---4---4---4-----4---4-4---4---4---------------------------------------------------|
B|------------------------------------------------------------------------------------------------|

C|------------------------------------------------------------------------------------------------|
G|------------------------------------------------------------------------------------------------|
D|------------------------------------------------------------------------------------------------|
A|------------------------------------------------------------------------------------------------|
E|0-----0---0-0---0---0---0-----0---0-2-----------0-----0---0-0---0---0---0---0---0---2---2---2---|
B|------------------------------------------------------------------------------------------------|

C|------------------------------------------------------------------------------------------------|
G|------------------------------------------------------------------------------------------------|
D|------------------------------------------------------------------------------------------------|
A|------------------------------------------------------------------------------------------------|
E|3-3-3-3-3-3-3-3-3-3-3-3-3-3-3-3-3-3-5-5-5-5-5-5-3-3-3-3-3-3-3-3-3-3-3-3-3-3-3-3-3-3-5-5-5-5-5-5-|
B|------------------------------------------------------------------------------------------------|

C|------------------------------------------------------------------------------------------------|
G|------------------------------------------------------------------------------------------------|
D|------------------------------------------------------------------------------------------------|
A|------------------------------------------------------------------------------------------------|
E|6-6-6-6-6-6-6-6-6-6-6-6-6-6-6-6-6-6-8-8-8-8-8-8-6-6-6-6-6-6-6-6-6-6-6-6-6-6-6-6-6-6-8-8-8-8-8-8-|
B|------------------------------------------------------------------------------------------------|

C|--------------------------------------------------------|
G|------------------------7-4-------3---------------------|
D|----------------------------6-5-6---6-3-----------------|
A|----------------------------------------5-4-5-7-5-3-2---|
E|7-7-7-7-7-7-7-7-7-7-7-7-------------------------------3-|
B|--------------------------------------------------------|

3:20

C|------------------------------------------------------------------------|
G|------------------------------------------------------------------------|
D|------------------------------------------------------------------------| x2
A|3-----3---3---3-----3-----3---3-----3-----3---3---3-----3-----3---3-----|
E|------------------------------------------------------------------------|
B|------------------------------------------------------------------------|

C|------------------------------------------------------------------------|
G|------------------------------------------------------------------------|
D|------------------------------------------------------------------------| x2
A|------------------------------------------------------------------------|
E|------------------------------------------------------------------------|
B|1-----1---1---1-----1-----1---1-----1-----1---1---1-----1-----1---1-----|

C|-------------------------------------------------|
G|-------------------------------------------------|
D|----------------9-12-10--------------------------|
A|-----10-9-12-11---------10-13-12-9-11-8-10-------| x3
E|8-11---------------------------------------11-10-|
B|-------------------------------------------------|

C|-------------------------------------------------------------|
G|-------------------------------------------------------------|
D|----------------9-12-10--------------------------------------|
A|-----10-9-12-11---------10-13-12-9-11-8-10-------------------|
E|8-11---------------------------------------11-10-8-----------|
B|-------------------------------------------------------------|

3:56

C|------------------------------------------------------------------------|
G|------------------------------------------------------------------------|
D|------------------------------------------------------------------------|
A|7-----7---7---7-----7-----7---7-----7-----7---7---7-----7-----7---7-----|
E|--0-0---0---0---0-0---0-0---0---0-0---0-0---0---0---0-0---0-0---0---0-0-|
B|------------------------------------------------------------------------|

C|--------------------------------------------------------------------|
G|--------------------------------------------------------------------|
D|--------------------------------------------------------------------|
A|7-----7---7---7-----7-----7---7-----7-----7---7-----7-----7---7-----|
E|--0-0---0---0---0-0---0-0---0---0-0---0-0---0---0-0---0-0---0---0-0-|
B|--------------------------------------------------------------------|

C|------------------------------------------------------------------------|
G|------------------------------------------------------------------------|
D|------------------------------------------------------------------------|
A|7-----7---7---7-----7-----7---7-----7-----7---7---7-----7-----7---7-----|
E|--0-0---0---0---0-0---0-0---0---0-0---0-0---0---0---0-0---0-0---0---0-0-|
B|------------------------------------------------------------------------|

C|--------------------------------------------------------------------|
G|--------------------------------------------------------------------|
D|--------------------------------------------------------------------|
A|7-----7---7---7-----7-----7---7-----7-----7---7-----8-----8---8-----|
E|--0-0---0---0---0-0---0-0---0---0-0---0-0---0---0-0---0-0---0---0-0-|
B|--------------------------------------------------------------------|

C|------------------------------------------------|
G|------------------------------------------------|
D|------------------------------------------------|
A|2-------1-------0-------------------------------|
E|------------2-3---------2---2-3-0-----0-----7-8-|
B|------------------------------------------------|

4:22

C|------------------------------------------------------------------------|
G|------------------------------------------------------------------------|
D|------------------------------------------------------------------------|
A|7-----7---7---7-----7-----7---7-----7-----7---7---7-----7-----7---7-----|
E|--0-0---0---0---0-0---0-0---0---0-0---0-0---0---0---0-0---0-0---0---0-0-|
B|------------------------------------------------------------------------|

C|--------------------------------------------------------------------|
G|--------------------------------------------------------------------|
D|--------------------------------------------------------------------|
A|7-----7---7---7-----7-----7---7-----7-----7---7-----7-----7---7-----|
E|--0-0---0---0---0-0---0-0---0---0-0---0-0---0---0-0---0-0---0---0-0-|
B|--------------------------------------------------------------------|

C|------------------------------------------------------------------------|
G|------------------------------------------------------------------------|
D|------------------------------------------------------------------------|
A|7-----7---7---7-----7-----7---7-----7-----7---7---7-----7-----7---7-----|
E|--0-0---0---0---0-0---0-0---0---0-0---0-0---0---0---0-0---0-0---0---0-0-|
B|------------------------------------------------------------------------|

C|--------------------------------------------------------------------|
G|--------------------------------------------------------------------|
D|--------------------------------------------------------------------|
A|7-----7---7---7-----7-----7---7-----7-----7---7-----8-----8---8-----|
E|--0-0---0---0---0-0---0-0---0---0-0---0-0---0---0-0---0-0---0---0-0-|
B|--------------------------------------------------------------------|

4:44

                                  v v v
                              
                                 triplets

C|----------------------------------------------------------------|
G|----------------------------------------------------------------|
D|----------------------------------------------------------------|
A|------------2---------------------------------------------------|
E|0---2---3---------------3---2---0-0-0---0---0---0-0-0---0---0---|
B|----------------------------------------------------------------|

C|----------------------------------------------------------------|
G|----------------------------------------------------------------|
D|----------------------------------------------------------------|
A|------------3---------------------------------------------------|
E|0---2---3---------------3---2---0-0-0---0---0---0-0-0---0---0---|
B|----------------------------------------------------------------|

C|----------------------------------------------------------------|
G|----------------------------------------------------------------|
D|------------2---------------------------------------------------|
A|----------------------------------------------------------------|
E|0---2---3---------------3---2---0-0-0---0---0---0-0-0---0---0---|
B|----------------------------------------------------------------|

C|----------------------------------------------------------------|
G|----------------------------------------------------------------|
D|----------------------------------------------------------------|
A|------------1-------------------------------0-------------------|
E|0---2---3---------------3---2---0---2---3---------------3---2---|
B|----------------------------------------------------------------|

C|----------------------------------------------------------------|
G|----------------------------------------------------------------|
D|----------------------------------------------------------------|
A|------------2---------------------------------------------------|
E|0---2---3---------------3---2---0-0-0---0---0---0-0-0---0---0---|
B|----------------------------------------------------------------|

C|----------------------------------------------------------------|
G|----------------------------------------------------------------|
D|----------------------------------------------------------------|
A|------------5---------------------------------------------------|
E|0---2---3---------------3---2---0-0-0---0---0---0-0-0---0---0---|
B|----------------------------------------------------------------|

C|----------------------------------------------------------------|
G|----------------------------------------------------------------|
D|----------------------------------------------------------------|
A|------------4---------------------------------------------------|
E|0---2---3---------------3---2---0-0-0---0---0---0-0-0---0---0---|
B|----------------------------------------------------------------|

C|----------------------------------------------------------------|
G|----------------------------------------------------------------|
D|----------------------------------------------------------------|
A|------------3-------------------------------1-------------------|
E|0---2---3---------------3---2---0---2---3---------------3---2---|
B|----------------------------------------------------------------|

C|------------------------------------------------|
G|------------------------------------------------|
D|------------------------------------------------|
A|2-------1-------0-------------------------------|
E|------------2-3---------2---2-3-0-----0-----7-8-|
B|------------------------------------------------|

5:09

C|------------------------------------------------------------------------|
G|------------------------------------------------------------------------|
D|------------------------------------------------------------------------|
A|7-----7---7---7-----7-----7---7-----7-----7---7---7-----7-----7---7-----|
E|--0-0---0---0---0-0---0-0---0---0-0---0-0---0---0---0-0---0-0---0---0-0-|
B|------------------------------------------------------------------------|

C|--------------------------------------------------------------------|
G|--------------------------------------------------------------------|
D|--------------------------------------------------------------------|
A|7-----7---7---7-----7-----7---7-----7-----7---7-----7-----7---7-----|
E|--0-0---0---0---0-0---0-0---0---0-0---0-0---0---0-0---0-0---0---0-0-|
B|--------------------------------------------------------------------|

C|------------------------------------------------------------------------|
G|------------------------------------------------------------------------|
D|------------------------------------------------------------------------|
A|7-----7---7---7-----7-----7---7-----7-----7---7---7-----7-----7---7-----|
E|--0-0---0---0---0-0---0-0---0---0-0---0-0---0---0---0-0---0-0---0---0-0-|
B|------------------------------------------------------------------------|

C|--------------------------------------------------------------------|
G|--------------------------------------------------------------------|
D|--------------------------------------------------------------------|
A|7-----7---7---7-----7-----7---7-----7-----7---7-----8-----8---8-----|
E|--0-0---0---0---0-0---0-0---0---0-0---0-0---0---0-0---0-0---0---0-0-|
B|--------------------------------------------------------------------|

5:31

C|----------------------------------------------------------------|
G|----------------------------------------------------------------|
D|----------------------------------------------------------------|
A|----------4---5---5-5-5-5-6---------------6---5-----------------|
E|3-6-3-5-------------------------3-6-3-5-----------5-4---4-4-4---|
B|----------------------------------------------------------------|

C|----------------------------------------------------------------|
G|----------------------------------------------------------------|
D|------------------------------------------5---4-----------------|
A|----------4---5---5-5-5-5-4-----------------------6-5-----------|
E|3-6-3-5---------------------6---3-6-3-5-----------------5-4-----|
B|----------------------------------------------------------------|

C|----------------------------------------------------------------|
G|----------------------------------------------------------------|
D|----------------------------------------------------------------|
A|----------4---5---5-5-5-5-6---------------6---5-----------------|
E|3-6-3-5-------------------------3-6-3-5-----------5-4---4-4-4---|
B|----------------------------------------------------------------|

C|----------------------------------------------------------------|
G|----------------------------------------------------------------|
D|------------------------------------------5---4-----------------|
A|----------4---5---5-5-5-5-4-----------------------6-5-----------|
E|3-6-3-5---------------------6---3-6-3-5-------------------5-4---|
B|----------------------------------------------------------------|

C|--------------|
G|--------------|
D|--------------|
A|--------------|
E|3-----3-----3-|
B|--------------|

5:52

C|----------------------------------------------------------------|
G|----------------------------------------------------------------|
D|----------------------------------------------------------------|
A|--------------------------3-1-----------------------------6-----|
E|------------------------------3---------------------------------|
B|1-----1-1-1-------1---1-1-------4-----4-4-4-------4---4-4-------|

C|----------------------------------------------------------------|
G|----------------------------------------------------------------|
D|------------------------------------------3---------------3-----|
A|----------------------------------------------------------------|
E|4---------4-------4---4-4-4---4-1-----1-1---------1---1-1---1-1-|
B|----------------------------------------------------------------|

C|----------------------------------------------------------------|
G|----------------------------------------------------------------|
D|----------------------------------------------------------------|
A|--------------------------3-1-----------------------------------|
E|------------------------------3-------------------------------3-|
B|1-----1-1-1-------1---1-1-------4-----4-4-4-------4---4-4-4-4---|

C|----------------------------------------------------------------|
G|----------------------------------------------------------------|
D|----------6---------------6-4---7-----4-----3-----1-------------|
A|------------------------------6---------------------------1---2-|
E|4-----4-4---------4---4-4---------------------------------------|
B|----------------------------------------------------------------|

C|----------------------------------------------------------------|
G|----------------------------------------------------------------|
D|----------------------------------------------------------------|
A|----------3---------------3-1-----------------------------------|
E|------------------------------3-------------------------------3-|
B|1-----1-1---------1---1-1-------4-----4-4-4-------4---4-4-4-4---|

C|----------------------------------------------------------------|
G|----------------------------------------------------------------|
D|----------6-----------------------------------------------3-1---|
A|--------------------------------------------------------------3-|
E|4-----4-4---------4---4-4-4---4-1-----1-1-1---1-1-1---1-1-------|
B|----------------------------------------------------------------|

C|----------------------------------------------------------------|
G|----------------------------------------------------------------|
D|----------------------------------------------------------------|
A|--------------------------3-1-----------------------------------|
E|------------------------------3-------------------------------3-|
B|1-----1-1-1-------1---1-1-------4-----4-4-4-------4---4---4-4---|

C|----------------------------------------------------------------|
G|----------------------------------------------------------------|
D|----------6-----------------------------------------------------|
A|----------------------------------------------------------------|
E|4-----4-4---------4---4-4-4-4-4-5-------5-------5-5-5---5-5-5---|
B|----------------------------------------------------------------|

6:31

           Use distortion on this part

C|------------------------------------------------------------|
G|------------------------------------------------------------|
D|------------------------------------------------------------|
A|3---------/-6---------------------------------------1-------|
E|------------------------2-----------------------------------|
B|------------------------------------------------------------|

C|------------------------------------------------------------|
G|------------------------------------------------------------|
D|--------------------------------------------4---4-----------|
A|----------/-3---------------------------------------5---4---|
E|1-----------------------4-----------------------------------|
B|------------------------------------------------------------|

C|------------------------------------------------------------|
G|------------------------------------------------------------|
D|----------------------------------------------------8-------|
A|3---------/-6---------/-9-----------------------------------|
E|------------------------------------------------------------|
B|------------------------------------------------------------|

C|------------------------------------------------------------|
G|------------------------------------------------------------|
D|--------------------------------------------4---4-----------|
A|8-----------3---------------------------------------5---4---|
E|------------------------4-----------------------------------|
B|------------------------------------------------------------|

6:47

C|------------------------------------------------------------------------|
G|------------------------------------------------------------------------|
D|------------------------------------------------------------------------|
A|3-----3---3---3-----3-----3---3-----3-----3---3---3-----3-----3---3-----|
E|------------------------------------------------------------------------|
B|------------------------------------------------------------------------|

C|------------------------------------------------------------------------|
G|------------------------------------------------------------------------|
D|------------------------------------------------------------------------|
A|------------------------------------------------------------------------|
E|------------------------------------------------------------------------|
B|1-----1---1---1-----1-----1---1-----1-----1---1---1-----1-----1---1-----|

C|-------------------------------------------------|
G|-------------------------------------------------|
D|----------------9-12-10--------------------------| x2
A|-----10-9-12-11---------10-13-12-9-11-8-10-------|
E|8-11---------------------------------------11-10-|
B|-------------------------------------------------|

C|------------------11-14-12----------------------------------------------------------------------|
G|------12-11-14-13----------12-15-14-11-13-10-12-------------------------------------------------|
D|10-13-------------------------------------------13-12-------------------------------------------|
A|------------------------------------------------------------------------------------------------|
E|------------------------------------------------------------------------------------------------|
B|------------------------------------------------------1-----1---1---1-----1-----1---1-----------|

7:10

C|------------------------------------------------------------------------|
G|------------------------------------------------------------------------|
D|------------------------------------------------------------------------|
A|------------------------------------------------------------------------|
E|0-----0---0---0-----0-----0---0-----0-----0---0---0-----0-----0---0-----|
B|------------------------------------------------------------------------|

C|------------------------------------------------------------------------|
G|------------------------------------------------------------------------|
D|------------------------------------------------------------------------|
A|------------------------------------------------------------------------|
E|0-----0---0---0-----0-----0---0-----0-----0---0-------0-----0---------0-|
B|------------------------------------------------------------------------|

C|------------------------------------------------------------------------|
G|------------------------------------------------------------------------|
D|------------------------------------------------------------------------|
A|------------------------------------------------------------------------|
E|0-----0---0---0-----0-----0---0-----0-----0---0---0-----0-----0---0-----|
B|------------------------------------------------------------------------|

C|------------------------------------------------------------------------|
G|------------------------------------------------------------------------|
D|------------------------------------------------------------------------|
A|------------------------------------------------------------------------|
E|0-----0---0---0-----0-----0---0-----0-----0---0-------1-----1---------1-|
B|------------------------------------------------------------------------|

7:30

C|----------------------------------------------------------------|
G|----------------------------------------------------------------|
D|----------------------------------------------------------------|
A|2-----2---2---2---------2-------3-----3---3---3---------3-------|
E|--0-0---0---0---0-0-0-0---0-0-0---0-0---0---0---0-0-0-0---0-0-0-|
B|----------------------------------------------------------------|

C|----------------------------------------------------------------|
G|----------------------------------------------------------------|
D|----------------------------------------------------------------|
A|7-----7---7---7---------7---------------------------------------|
E|--0-0---0---0---0-0-0-0---0-0-0-6-0-0-6-0-6-0-0-5-0-0-5-0-5-0-0-|
B|----------------------------------------------------------------|

C|----------------------------------------------------------------|
G|----------------------------------------------------------------|
D|----------------------------------------------------------------|
A|2-----2---2---2---------2-------5-----5---5---5---------5-------|
E|--0-0---0---0---0-0-0-0---0-0-0---0-0---0---0---0-0-0-0---0-0-0-|
B|----------------------------------------------------------------|

C|----------------------------------------------------------------|
G|----------------------------------------------------------------|
D|----------------------------------------------------------------|
A|4-----4---4---4---------4-------3-----3---3---------------------|
E|--0-0---0---0---0-0-0-0---0-0-0---0-0---0---0-0-1-0-0-1-0-1-0-0-|
B|----------------------------------------------------------------|

7:49

C|----------------------------------------------------------------|
G|----------------------------------------------------------------|
D|----------------------------------------------------------------|
A|----------4---5---5-5-5-5-6-6-------------6---5-----------------|
E|3-6-3-5-------------------------3-6-3-5-----------5-4---4-4-4---|
B|----------------------------------------------------------------|

C|----------------------------------------------------------------|
G|----------------------------------------------------------------|
D|------------------------------------------5---4-----------------|
A|----------4---5---5-5-5-5-4-----------------------6-5-----------|
E|3-6-3-5---------------------6---3-6-3-5-----------------5-4-----|
B|----------------------------------------------------------------|

C|----------------------------------------------------------------|
G|----------------------------------------------------------------|
D|----------------------------------------------------------------|
A|----------4---5---5-5-5-5-6---------------6---5-----------------|
E|3-6-3-5-------------------------3-6-3-5-----------5-4---4-4-4---|
B|----------------------------------------------------------------|

C|----------------------------------------------------------------|
G|----------------------------------------------------------------|
D|------------------------------------------5---4-----------------|
A|----------4---5---5-5-5-5-4-----------------------6-5-----------|
E|3-6-3-5---------------------6---3-6-3-5-----------------5-4-----|
B|----------------------------------------------------------------|

C|--------------|
G|--------------|
D|--------------|
A|--------------|
E|3-----3-----3-|
B|--------------|

8:10

C|----------------------------------------------------------------|
G|----------------------------------------------------------------|
D|----------------------------------------------------------------|
A|--------------------------3-1-----------------------------------|
E|------------------------------3-------------------------------3-|
B|1-----1-1-1-------1---1-1-------4-----4-4-4-------4---4-4-4-4---|

C|----------------------------------------------------------------|
G|----------------------------------------------------------------|
D|----------6-----------------------------------------------------|
A|----------------------------------------------------------------|
E|4-----4-4---------4---4-4-4---4-1-----1-1-1-------1---1---1-1-1-|
B|----------------------------------------------------------------|

C|----------------------------------------------------------------|
G|----------------------------------------------------------------|
D|----------------------------------------------------------------|
A|--------------------------3-1-----------------------------------|
E|------------------------------3-------------------------------3-|
B|1-----1-1-1-------1---1-1-------4-----4-4-4-------4---4-4-4-4---|

C|----------------------------------------------------------------|
G|----------------------------------------------------------------|
D|--------------------------------7-----4-----3-----1-------------|
A|----------------------------------------------------------1---2-|
E|4-----4-4-4-------4---4-4-4-------------------------------------|
B|----------------------------------------------------------------|

C|----------------------------------------------------------------|
G|----------------------------------------------------------------|
D|----------------------------------------------------------------|
A|--------------------------3-1-----------------------------------|
E|------------------------------3---------------------------------|
B|1-----1-1-1-------1---1-1-------4-----4-4-4-------4---4-4-4-4-4-|

C|----------------------------------------------------------------|
G|----------------------------------------------------------------|
D|--------------------------------------------------3-1---3-1---3-|
A|------------------------------------------------------3-----3---|
E|4-----4-4-4-------4---4---4---4-1-----1-1-1---------------------|
B|----------------------------------------------------------------|

C|----------------------------------------------------------------|
G|----------------------------------------------------------------|
D|----------------------------------------------------------------|
A|--------------------------3-1-----------------------------------|
E|------------------------------3-------------------------------3-|
B|1-----1-1-1-------1---1-1-------4-----4-4-4-------4---4-4-4-4---|

C|----------------------------------------------------------------|
G|----------------------------------------------------------------|
D|----------------------------------------------------------------|
A|----------------------------------------------------------------|
E|4-----4-4-4-------4---4---4-4-4-5---------------5---5---5-5-5-5-|
B|----------------------------------------------------------------|

8:48

           Use distortion again.

C|------------------------------------------------------------|.
G|------------------------------------------------------------|.
D|------------------------------------------------------------|.
A|3---------/-6---------------------------------------1-------|.
E|------------------------2-----------------------------------|.
B|------------------------------------------------------------|.
                                                               .
C|------------------------------------------------------------|.
G|------------------------------------------------------------|.
D|--------------------------------------------4---4-----------|.
A|----------/-3---------------------------------------5---4---|.
E|1-----------------------4-----------------------------------|.
B|------------------------------------------------------------|.
                                                               . x2
C|------------------------------------------------------------|.
G|------------------------------------------------------------|.
D|----------------------------------------------------8-------|.
A|3---------/-6---------/-9-----------------------------------|.
E|------------------------------------------------------------|.
B|------------------------------------------------------------|.
                                                               .
C|------------------------------------------------------------|.
G|------------------------------------------------------------|.
D|--------------------------------------------4---4-----------|.
A|8-----------3---------------------------------------5---4---|.
E|------------------------4-----------------------------------|.
B|------------------------------------------------------------|.

9:21

C|------------------------------------------------------------|.
G|------------------------------------------------------------|.
D|------------------------------------------------------------|.
A|3-3-3-3-3-3-3---3---3---------------------------------------|.
E|------------------------2-2-2-2-2-2-2---2---2---2---2---2---|.
B|------------------------------------------------------------|.
                                                               . x2
C|------------------------------------------------------------|.
G|------------------------------------------------------------|.
D|--------------------------------------------4---4-----------|.
A|----------------------------------------------------5---4---|.
E|1-1-1-1-1-1-1---1---1---4-4-4-4-4-4-4---4-------------------|.
B|------------------------------------------------------------|.

9:37  

C|--------------------------------------------------------------------------------------|.
G|--------------------------------------------------------------------14----13----11----|.
D|------------------------16----15----13----------16-15-16-15-13---12----12----12-------|.
A|--10-----------------14----14----14----------14----------------9----------------------|.
E|8----11-10-11-10-8-7----------------------11------------------------------------------|.
B|--------------------------------------------------------------------------------------|.
                                                                                         .
C|--------------------------------------------------------------------------------------|.
G|-----------------------------------------------------------------14----13----11-------|.
D|------------------------16----16-------------16-15-16-15-13---12----12----12----12----|.
A|--10-----------------14----14-------------14----------------9----------------------12-|.
E|8----11-10-11-10-8-7-------------------11---------------------------------------------|.
B|--------------------------------------------------------------------------------------|.
                                                                                         . x2
C|--------------------------------------------------------------------------------------|.
G|--------------------------------------------------------------------14----13----11----|.
D|------------------------16----15----13----------16-15-16-15-13---12----12----12-------|.
A|--10-----------------14----14----14----------14----------------9----------------------|.
E|8----11-10-11-10-8-7----------------------11------------------------------------------|.
B|--------------------------------------------------------------------------------------|.
                                                                                         ........
C|---------------------------------------------------------------------------------------------|.
G|-----------------------------------------------------------------14----13----11--------------|.
D|------------------------16----16-------------16-15-16-15-13---12----12----12----12----13-9---|.
A|--10-----------------14----14-------------14----------------9----------------------12------9-|.
E|8----11-10-11-10-8-7-------------------11----------------------------------------------------|.
B|---------------------------------------------------------------------------------------------|.

C|-----------------------------------------|
G|-----------------------------------------|
D|10---------------------------------------|
A|---11----12------10----------6-----------|
E|------11----13-9-----11--7-------7---3---|
B|-----------------------------------------|

10:15

C|--------|---------------|---------------|---------------|-------|
G|--------|---------------|---------------|---------------|-------|
D|--------|---------------|---------------|---------------|-------|
A|--------|---------------|---------------|---------------|-------|
E|--------|---------------|---------------|------2--------|-------|
B|1-------|-------4-------|-------4-------|---------------|-------|

C|--------|---------------|---------------|---------------|-------|
G|--------|---------------|---------------|---------------|-------|
D|--------|---------------|---------------|---------------|-------|
A|--------|---------------|---------------|---------------|-------|
E|--------|---------------|-------0-------|-------3-------|-------|
B|2-------|-------1-------|---------------|---------------|-------|

C|--------|---------------|---------------|---------------|-------|
G|--------|---------------|---------------|---------------|-------|
D|--------|---------------|---------------|---------------|-------|
A|--------|---------------|---------------|---------------|-------|
E|6-------|-------5-------|---------------|---------------|-------|
B|--------|---------------|-------2-------|-------1-------|-------|

C|--------|---------------|---------------|---------------|-------|
G|--------|---------------|---------------|---------------|-------|
D|--------|---------------|---------------|---------------|-------|
A|--------|---------------|---------------|---------------|-------|
E|0-------|-------3-------|-------6-------|---------------|-------|
B|--------|---------------|---------------|---------------|-------|







15:32

C|------------------------------------------------------------------------------------------------|.
G|------------------------------------------------------------------------4-----------------------|.
D|------------------------6-----------------------------------------------------------------------|.
A|------------------------------------------------2-----------------------------------------------|.
E|4-----------------------------------------------------------------------------------------------|.
B|------------------------------------------------------------------------------------------------|.
                                                                                                   . x2
C|------------------------------------------------------------------------------------------------|.
G|------------------------------------------------------------------------------------------------|.
D|------------------------4-----------------------------------------------2-----------------------|.
A|------------------------------------------------------------------------------------------------|.
E|2-----------------------------------------------0-----------------------------------------------|.
B|------------------------------------------------------------------------------------------------|.

16:02

C|------------------------------------------------------------------------------------------------|
G|------------------------------------------------------------------------------------------------|
D|------------------------------------6-----------------------------------------------------------|
A|--------------------------------------------1---2-----2---2-2---2---2---2-----2---2-1---1-2-1---|
E|4-----4---4-4---4---4---4-----4---4-----4-----------------------------------------------------4-|
B|------------------------------------------------------------------------------------------------|

C|------------------------------------------------------------------------------------------------|
G|------------------------------------------------------------------------------------------------|
D|----------------4-----------------------------------------------2---2---------------2-----------|
A|--------------------4-------------------------------------------------------------------2-------|
E|2-----2---2-2-----------2-----2---2-2---2---2---0-----0---0-0-----------0-----0---0---------0---|
B|------------------------------------------------------------------------------------------------|

C|------------------------------------------------------------------------------------------------|
G|------------------------------------------------------------------------------------------------|
D|------------------------------------6-----------------------------------------------------------|
A|------------------------------------------------1-----1---1-1---1---1---2-----2---2-2---2---2-2-|
E|4-----4---4-4---4---4---4-----4---4-----4---4---------------------------------------------------|
B|------------------------------------------------------------------------------------------------|

C|------------------------------------------------------------------------------------------------|
G|------------------------------------------------------------------------------------------------|
D|----------------2-----------------------------------------------2-------------------------------|
A|--------------------2-----------------------------------------------2---------------------------|
E|0-----0-----0-----------0-----0---0-2---2---2-2-0-----0-----0-----------0-----0---0-2---2---2-2-|
B|------------------------------------------------------------------------------------------------|

16:31

C|------------------------------------------------------------------------------------------------|
G|------------------------------------------------------------------------------------------------|
D|------------------------------------6-----------------------------------------------------------|
A|--------------------------------------------1---2-----2---2-2---2---2---2-----2---2-1---1-2-----|
E|4-----4---4-4---4---4---4-----4---4-----4---------------------------------------------------4-\-|
B|------------------------------------------------------------------------------------------------|

C|------------------------------------------------------------------------------------------------|
G|------------------------------------------------------------------------------------------------|
D|----------------4-------------------4---4-2---------------------2-------------------------------|
A|--------------------------------------------4-2-------------------------------------------------|
E|2-----2---2-2-------2---2-----2---2-------------0-----0---0-0-----------0-----0-----0---0---2---|
B|------------------------------------------------------------------------------------------------|

C|------------------------------------------------------------------------------------------------|
G|------------------------------------------------------------------------------------------------|
D|------------------------------------6-----------------------------------------------------------|
A|------------------------------------------------1-----1---1-1---1---1---2-----2---2-2---2---2---|
E|4-----4---4-4---4---4---4-----4---4-----4---4---------------------------------------------------|
B|------------------------------------------------------------------------------------------------|

C|------------------------------------------------------------------------------------------------|
G|------------------------------------------------------------------------------------------------|
D|----------------2-----------------------------------------------2-------------------------------|
A|--------------------2-----------------------------------------------2---------------------------|
E|0-----0-----0-----------0-----0-----2---2---2---0-----0---0-0-----------0-----0-----2---2---2-2-|
B|------------------------------------------------------------------------------------------------|

16:59

C|------------------------------------------------------------------------------------------------|
G|----------------------------------------------------------------4-------------------------------|
D|------------------------------------6-------------------------------4---------------------------|
A|--------------------------------------------1---2-----2---2-2-----------2-----2---2-2---1-------|
E|4-----4---4-4---4---4---4-----4---4-----4---------------------------------------------------4---|
B|------------------------------------------------------------------------------------------------|

C|------------------------------------------------------------------------------------------------|
G|------------------------------------------------------------------------------------------------|
D|----------------------------------------4-----------------------2-----------------------2---2---|
A|--------------------------------------------4-----------------------2---------------------------|
E|2-----2---2-2---2---2---2-----2---2-2-----------------0---0-0-----------0-----0---0-0-----------|
B|------------------------------------------------------------------------------------------------|

C|------------------------------------------------------------------------------------------------|
G|------------------------------------------------------------------------------------------------|
D|----------------6-------------------6-----------------------------------------------------------|
A|------------------------------------------------1-----1---1-1---1---1---2-----2---2-2---2---2---|
E|4-----4---4-4-------4---4-----4---4-----4---4---------------------------------------------------|
B|------------------------------------------------------------------------------------------------|

C|------------------------------------------------------------------------------------------------|
G|------------------------------------------------------------------------------------------------|
D|----------------2-----------------------------------------------2-------------------------------|
A|--------------------2-----------------------------------------------2---------------------------|
E|0-----0---0-0-----------0-----0---0-2---2---2---0-----0---0-0-----------0-----0---0-2-----------|
B|------------------------------------------------------------------------------------------------|

17:27

C|------------------------------------------------------------------------------------------------|
G|----------------------------------------------------------------4---3---4-----3-----3-4-3-------|
D|----------------6-------------------6-----------------------------------------------------6-4---|
A|--------------------------------------------1---2-----2---2-2---------------------------------6-|
E|4-----4---4-4-------4---4-----4---4-----4-------------------------------------------------------|
B|------------------------------------------------------------------------------------------------|

C|------------------------------------------------------------------------------------------------|
G|------------------------------------------------------------------------------------------------|
D|----------------4-----------------------4-------2-----2---2-4---------4-6---------6-8---8---8---|
A|------------------------------------------------------------------------------------------------|
E|2-----2---2-2-------2---2-----2---2-2-------2---------------------------------------------------|
B|------------------------------------------------------------------------------------------------|

C|------------------------------------------------------------------------------------------------|
G|------------------------------------------------------------------------------------------------|
D|----------------6-------------------------------------------------------------------------------|
A|------------------------------------------------1-----1---1-1---1---1---2-----2---2-1---1-2-----|
E|4-----4---4-4-------4---4-----4-----4-2-4-2-4-----------------------------------------------4-2-|
B|------------------------------------------------------------------------------------------------|

C|------------------------------------------------------------------------------------------------|
G|------------------------------------------------------------------------8-9-8-6-----------------|
D|----------------2-----------------------------------------------2---------------9-8-6-4---------|
A|--------------------2-----------------------------------------------2-------------------7-6-4-2-|
E|0-----0---0-0-----------0-----0---0-2---2---2-2-0-----0---0-0-----------------------------------|
B|------------------------------------------------------------------------------------------------|

17:55

C|------------------------------------------------------------|
G|------------------------------------------------------------|
D|------------------------------------------------------------|
A|------------------------------------------------------------|
E|0-----------2-----------0-----------2-----------4-----------|
B|------------------------------------------------------------|

C|------------------------------------------------------------------------|
G|------------------------------------------------------------------------|
D|------------------------------------------------------------------------|
A|------------------------------------------------------------1-----------|
E|0-----------2-----------0-----------2-----------4-----------------------|
B|------------------------------------------------------------------------|

C|------------------------------------------------------------|
G|------------------------------------------------------------|
D|------------------------------------------------------------|
A|------------------------------------------------------------|
E|0-----------2-----------0-----------2-----------4-----------|
B|------------------------------------------------------------|

C|----------------------------------------------------------------------------|
G|----------------------------------------------------------------------------|
D|----------------------------------------------------------------------------|
A|------------------------------------------------------------1---------------|
E|0-----------2-----------0-----------2-----------4---------------------------|
B|----------------------------------------------------------------------------|

C|------------------------------------------------------------------------|
G|------------------------------------------------------------------------|
D|------------------------------------------------------------------------|
A|------------------------------------------------------------------------|
E|4-----------------------------------------------------------------------|
B|------------------------------------------------------------------------|

            
            
Suggest correction
Creating personal tab
Creating personal tab
You can edit any tab online and save it as your Personal.

You can edit, replace or remove any tab part or add personal notes – all changes will be seen only by you.

Personal tabs can be accessed anytime from any device, even offline.
Learn more »
Give kudos to tab author, rate the tab!
1 2 3 4 5
comments
print report bad tab
guest
You may want to rate the tab now too:
select rating
Wanna post a correction for this tab? Suggest correction