Oops, an error
Loading. Please wait.

The Dark Eternal Night bass

37,355 views 24 this week
10 commentsread comments
1 2 3 4 5
x 5
add to favorites
×
Save as Personal and add changes to this tab that will be seen only by you. Learn more ›
×
You can save this tab as Personal to edit and correct it or add notes. All changes will be seen only by you. Learn more »
launch autoscroll
font size
0
reset
guitar tuner
edit
Autoscroll
slow
fast
+/-
esc
set tempo
stop
Author
Difficulty
Dream Theater: The Dark Eternal Night

Transcribed by: Andrew Zara (disturbedfreak0520@yahoo.com)

Date last modified: June 8, 2007

PLEASE DO NOT COPY THIS TAB TO ANOTHER SITE
WITHOUT AUTHORS' PERMISSION. THANK YOU.

Tuning: B Standard (B,E,A,D,G,C)

  W                   W                   W                 
C||-------------------|-------------------|-------------------|
G||-------------------|-------------------|-------------------|
D||-------------------|-------------------|-------------------|
A||-------------------|-------------------|-------------------|
E||-------------------|-------------------|-------------------|
B||-------------------|-------------------|-------------------|


                         P                                        
         |-3-| |--3--|                                            
  Q.     S S S E  E  E   E  E      S S E  E  S S S S S S S S S S  
--------------------------------|--------------------------------|
--------------------------------|--------------------------------|
------------------------18--L\--|--------------------------------|
------------------------17--L\--|--------------------------------|
--------------------------------|--------------------4-5---4-----|
---------0-0-0-0--0--0----------|--7-6-0-----0-0-6-7-----7---6-0-|


                     P                                            
  S S E  E  S S S S  E  S S S S    S S E  E  S S S S S S S S S S  
--------------------------------|--------------------------------|
--------------------------------|--------------------------------|
--------------------19----------|--------------------------------|
--------------------18----------|--------------------------------|
--------------------------4-----|--------------------1-2---1-----|
--7-6-0-----0-0-0-0-----0---2-0-|--7-6-0-----0-0-3-4-----4---3-0-|


  S S E  E  S S S S S S S E.      S S E  E  S S S S S S S S S S  
-------------------------------|--------------------------------|
-------------------------------|--------------------------------|
-------------------------------|--------------------------------|
-------------------------------|--------------------------------|
----------------7-------4------|--------------------4-5---4-----|
--4-3-0-----0-0---6-0-0---3~---|--7-6-0-----0-0-6-7-----7---6-0-|


                     P                                            
  S S E  E  S S S S  E  S S S S    S S E  E  S S S S S S S S S S  
--------------------------------|--------------------------------|
--------------------------------|--------------------------------|
--------------------19----------|--------------------------------|
--------------------18----------|--------------------------------|
--------------------------4-----|--------------------1-2---1-----|
--7-6-0-----0-0-0-0-----0---2-0-|--7-6-0-----0-0-3-4-----4---3-0-|


                            P      P                                        
            |-3-| |--3--|                                                   
  S S E  E  S S S E  E  E   E  E   Q       S S S S S S S S S S S S S S S S  
----------------------------------------|----------------------------------|
----------------------------------------|----------------------------------|
---------------------------18-----19----|----------------------------------|
---------------------------17-----18----|--6-----------4-----------2-------|
----------------------------------------|----4---5-4-----2---3-2-----1-0---|
--4-3-0-----0-0-0-0--0--0------0--------|------0-----0-----0-----0-------0-|


  S S S S S S S S S S S S S S S S S S S S    S S S S S S S S S S S S S S S S  
------------------------------------------|----------------------------------|
------------------------------------------|----------------------------------|
------------------------------------------|----------------------------------|
--6-----------4-----------2---------------|----------------------------------|
----4---5-4-----2---3-2-----1-0---4-------|------4---4-------4---4-------5---|
------0-----0-----0-----0-------0---3-2-0-|--0-3---3---3-0-3---3---3-0-3---6-|


  S S S S S S S S S S S S S S S S    S S S S S S S S S S S S S S S S  
----------------------------------|----------------------------------|
----------------------------------|----------------------------------|
----------------------------------|----------------------------------|
----------------------------------|--6-----------4-----------2-------|
------4---4-------4---4-------7---|----4---5-4-----2---3-2-----1-0---|
--0-3---3---3-0-3---3---3-0-3---6-|------0-----0-----0-----0-------0-|


  S S S S S S S S S S S S S S S S S S S S    S S S S S S S S S S S S S S S S  
------------------------------------------|----------------------------------|
------------------------------------------|----------------------------------|
------------------------------------------|----------------------------------|
--6-----------4-----------2---------------|----------------------------------|
----4---5-4-----2---3-2-----1-0---4-------|------4---4-------4---4-------5---|
------0-----0-----0-----0-------0---3-2-0-|--0-3---3---3-0-3---3---3-0-3---6-|


  S S S S S S S S S S S S S S S S    S S S S S S S S S S S S S S S S S S S S  
----------------------------------|------------------------------------------|
----------------------------------|------------------------------------------|
----------------------------------|------------------------------------------|
----------------------------------|------------------------------------------|
------4---4-------4---4-------7---|------1-2---1-------------1-2---1---------|
--0-3---3---3-0-3---3---3-0-3---6-|--3-4-----4---4-5-4-0-3-4-----4---4-5-4-0-|


  S S S S S S S S S S S S S S S S S S S S  
------------------------------------------|
------------------------------------------|
------------------------------------------|
------------------------------------------|
------4-5---4-------------4-5---4---------|
--6-7-----7---6-7-6-0-6-7-----7---6-7-6-0-|


  S S S S S S S S S S S S S S S S S S S S  
------------------------------------------|
------------------------------------------|
------------------------------------------|
------------------------------------------|
------1-2---1-------------1-2---1---------|
--3-4-----4---4-5-4-0-3-4-----4---4-5-4-0-|


  S S S S S S S S S S S S S S S S S S S S    S S S S S S S S S S S S S S S S  
------------------------------------------|----------------------------------|
------------------------------------------|----------------------------------|
------------------------------------------|----------------------------------|
------------------------------------------|----------------------------------|
------4-5---4-------------4-5---4---------|------4---4-------4---4-------5---|
--6-7-----7---6-7-6-0-6-7-----7---6-7-6-0-|--0-3---3---3-0-3---3---3-0-3---6-|


  S S S S S S S S S S S S S S S S    S S S S S S S S S S S S S S S S  
----------------------------------|----------------------------------|
----------------------------------|----------------------------------|
----------------------------------|----------------------------------|
----------------------------------|----------------------------------|
------4---4-------4---4-------7---|------4---4-------4---4-------5---|
--0-3---3---3-0-3---3---3-0-3---6-|--0-3---3---3-0-3---3---3-0-3---6-|


  S S S S S S S S S S S S S S S S    E  W                   W                 
----------------------------------|----------------------|-------------------|
----------------------------------|----------------------|-------------------|
----------------------------------|----------------------|-------------------|
----------------------------------|----------------------|-------------------|
------4---4-------4---4-------7---|----------------------|-------------------|
--0-3---3---3-0-3---3---3-0-3---6-|--0-------------------|-------------------|


  S S E  E  S S S S S S S S S S    S S E  E  S S S S S S S S S S  
--------------------------------|--------------------------------|
--------------------------------|--------------------------------|
--------------------------------|--------------------------------|
--------------------------------|--------------------------------|
------------------------4-------|------------------------7-------|
--7-6-0-----0-0-0-3-0-0---3-0-3-|--7-6-0-----0-0-0-3-0-0---6-5-0-|


                                             |-3-|                 
  S S E  E  S S S S S S S S S S    S S E  E  S S S S S S S S E.    
--------------------------------|---------------------------------|
--------------------------------|---------------------------------|
--------------------------------|---------------------------------|
--------------------------------|---------------------------------|
--4-----------------------------|------------------7-------5------|
----3-0-----0-0-0-3-0-0-6-3-0-3-|--7-6-0-----0-0-0---6-0-0---3~---|


  S S E  E  S S S S S S S S S S    S S E  E  S S S S S S S S S S  
--------------------------------|--------------------------------|
--------------------------------|--------------------------------|
--------------------------------|--------------------------------|
--------------------------------|--------------------------------|
------------------------4-------|------------------------7-------|
--7-6-0-----0-0-0-3-0-0---3-0-3-|--7-6-0-----0-0-0-3-0-0---6-5-0-|


                                                             P     
                                             |-3-| |--3--|         
  S S E  E  S S S S S S S S S S    S S E  E  S S S E  E  E   Q     
--------------------------------|---------------------------------|
--------------------------------|---------------------------------|
--------------------------------|---------------------------18----|
--------------------------------|---------------------------17----|
--4-----------------------------|---------------------------------|
----3-0-----0-0-0-3-0-0-6-3-0-3-|--7-6-0-----0-0-0-0--0--0--------|


  S S S S S S S S S S S S S S S S    S S S S S S S S S S S S S S S S S S S S  
----------------------------------|------------------------------------------|
----------------------------------|------------------------------------------|
--6-----------4-----------2-------|--6-----------4-----------2---------------|
----4---5-4-----2---4-2-----1-0---|----4---5-4-----2---4-2-----1-0---4-------|
------0-----0-----0-----0-------0-|------0-----0-----0-----0-------0---3-2-0-|
----------------------------------|------------------------------------------|


  S S S S S S S S S S S S S S S S    S S S S S S S S S S S S S S S S S S S S  
----------------------------------|------------------------------------------|
----------------------------------|------------------------------------------|
----------------------------------|------------------------------------------|
----------------------------------|------------------------------------------|
------4---4-------3---3---4-------|------4---4-------3---3---4-------4-------|
--0-2---2---2-0-2---0---2---2-0-3-|--0-2---2---2-0-2---0---2---2-0-3---2-0-3-|


  S S S S S S S S S S S S S S S S    S S S S S S S S S S S S S S S S S S S S  
----------------------------------|------------------------------------------|
----------------------------------|------------------------------------------|
--6-----------4-----------2-------|--6-----------4-----------2---------------|
----4---5-4-----2---4-2-----1-0---|----4---5-4-----2---4-2-----1-0---4-------|
------0-----0-----0-----0-------0-|------0-----0-----0-----0-------0---3-2-0-|
----------------------------------|------------------------------------------|


  S S S S S S S S S S S S S S S S  
----------------------------------|
----------------------------------|
----------------------------------|
----------------------------------|
------4---4-------3---3---4-------|
--0-2---2---2-0-2---0---2---2-0-3-|


  S S S S S S S S S S S S S S S S S S S S S S S S    W                 
--------------------------------------------------|-------------------|
--------------------------------------------------|-------------------|
--------------------------------------------------|-------------------|
--------------------------------------------------|-------------------|
------4---4-------3---3---4-------3---3---4-------|-------------------|
--0-2---2---2-0-2---0---2---2-0-2---0---2---2-0-3-|--0----------------|


  H        H           W                   H        H         
--------------------|-------------------|--------------------|
--------------------|-------------------|--------------------|
--------------------|-------------------|--------------------|
--------------------|-------------------|--------------------|
--5-----------------|-------------------|--5--------3--------|
-----------5--------|--0----------------|--------------------|


  W                   H        H           H        H         
-------------------|--------------------|--------------------|
-------------------|--------------------|--------------------|
-------------------|--------------------|--------------------|
-------------------|--------------------|--------------------|
-------------------|--5-----------------|--------------------|
--0----------------|-----------5--------|--7--------3--------|


                                |--3--|           
  H        H           H        E  E  E   E  E    
--------------------|----------------------------|
--------------------|----------------------------|
--------------------|----------------------------|
--------------------|----------------------------|
--------------------|----------------------------|
--5--------2--------|--0--------0--x--x--12--L\--|


  S S E  E  S S S S S S S S S S    S S E  E  S S S S S S S S S S  
--------------------------------|--------------------------------|
--------------------------------|--------------------------------|
--------------------------------|--------------------------------|
--------------------------------|--------------------------------|
------------------------4-------|------------------------7-------|
--7-6-0-----0-0-0-3-0-0---3-0-3-|--7-6-0-----0-0-0-3-0-0---6-5-0-|


                                             |-3-| |--3--|                   
  S S E  E  S S S S S S S S S S    S S E  E  S S S E  E  E   E  E    E  E    
--------------------------------|-------------------------------------------|
--------------------------------|-------------------------------------------|
--------------------------------|---------------------------18--L\--19--L\--|
--------------------------------|---------------------------17--L\--18--L\--|
--4---------------------1-------|-------------------------------------------|
----3-0-----0-0-0-3-0-0---3-0-3-|--7-6-0-----0-0-0-0--0--0------------------|


  S S E  E  S S S S S S S S S S    S S E  E  S S S S S S S S S S S S S S  
--------------------------------|----------------------------------------|
--------------------------------|----------------------------------------|
--------------------------------|----------------------------------------|
--------------------------------|----------------------------------------|
------------------------4-------|------------------------7-------4-------|
--7-6-0-----0-0-0-3-0-0---3-0-3-|--7-6-0-----0-0-0-3-0-0---6-5-6---3-2-3-|


  S S E  E  S S S S S S S S S S  
--------------------------------|
--------------------------------|
--------------------------------|
--------------------------------|
--4---------------------4-------|
----3-0-----0-0-0-3-0-0---3-0-3-|


                |-3-| |-3-|     |--3-| |--3-|               
  S S E  E  S S S S S S S S S S S S  S S S  S E    S S E    
-----------------------------------------------------------|
-----------------------------------------------------------|
----------------------------------------------7~-----------|
----------------------------6----------8-9-11-----11-9-8~--|
----------------------6-7-9-----7-9-11---------------------|
--7-6-0-----0-0-6-7-9--------------------------------------|


  S S S S S S S S S S S S S S S S    S S S S S S S S S S S S S S S S S S S S  
----------------------------------|------------------------------------------|
----------------------------------|------------------------------------------|
--6-----------4-----------2-------|--6-----------4-----------2---------------|
----4---5-4-----2---4-2-----1-0---|----4---5-4-----2---4-2-----1-0---4-------|
------0-----0-----0-----0-------0-|------0-----0-----0-----0-------0---3-2-0-|
----------------------------------|------------------------------------------|


  S S S S S S S S S S S S S S S S    S S S S S S S S S S S S S S S S S S S S  
----------------------------------|------------------------------------------|
----------------------------------|------------------------------------------|
----------------------------------|------------------------------------------|
----------------------------------|------------------------------------------|
------4---4-------3---3---4-------|------4---4-------3---3---4-------4-------|
--0-2---2---2-0-2---0---2---2-0-3-|--0-2---2---2-0-2---0---2---2-0-3---2-0-3-|


  S S S S S S S S S S S S S S S S    S S S S S S S S S S S S S S S S S S S S  
----------------------------------|------------------------------------------|
----------------------------------|------------------------------------------|
--6-----------4-----------2-------|--6-----------4-----------2---------------|
----4---5-4-----2---4-2-----1-0---|----4---5-4-----2---4-2-----1-0---4-------|
------0-----0-----0-----0-------0-|------0-----0-----0-----0-------0---3-2-0-|
----------------------------------|------------------------------------------|


  S S S S S S S S S S S S S S S S  
----------------------------------|
----------------------------------|
----------------------------------|
----------------------------------|
------4---4-------3---3---4-------|
--0-2---2---2-0-2---0---2---2-0-3-|


  S S S S S S S S S S S S S S S S S S S S S S S S    W                 
--------------------------------------------------|-------------------|
--------------------------------------------------|-------------------|
--------------------------------------------------|-------------------|
--------------------------------------------------|-------------------|
------4---4-------3---3---4-------3---3---4-------|-------------------|
--0-2---2---2-0-2---0---2---2-0-2---0---2---2-0-3-|--0----------------|


  H        H           W                   H        H         
--------------------|-------------------|--------------------|
--------------------|-------------------|--------------------|
--------------------|-------------------|--------------------|
--------------------|-------------------|--------------------|
--5-----------------|-------------------|--5--------3--------|
-----------5--------|--0----------------|--------------------|


  W                   H        H           H        H         
-------------------|--------------------|--------------------|
-------------------|--------------------|--------------------|
-------------------|--------------------|--------------------|
-------------------|--------------------|--------------------|
-------------------|--5-----------------|--------------------|
--0----------------|-----------5--------|--7--------3--------|


  H        H           W                   H        H         
--------------------|-------------------|--------------------|
--------------------|-------------------|--------------------|
--------------------|-------------------|--------------------|
--------------------|-------------------|--------------------|
--------------------|-------------------|--5-----------------|
--5--------2--------|--0----------------|-----------5--------|


  W                   H        H           W                 
-------------------|--------------------|-------------------|
-------------------|--------------------|-------------------|
-------------------|--------------------|-------------------|
-------------------|--------------------|-------------------|
-------------------|--5--------3--------|-------------------|
--0----------------|--------------------|--0----------------|


  H        H           H        H           H        H           H.            
--------------------|--------------------|--------------------|---------------|
--------------------|--------------------|--------------------|---------------|
--------------------|--------------------|--------------------|---------------|
--------------------|--------------------|--------------------|---------------|
--5-----------------|--------------------|--------------------|---------------|
-----------5--------|--7--------3--------|--5--------2--------|--0------------|


  H        E     H.              H.              H.              H        E   
--------------|---------------|---------------|---------------|--------------|
--------------|---------------|---------------|---------------|--------------|
--------------|---------------|---------------|---------------|--------------|
--------------|---------------|---------------|---------------|--------------|
--------------|---------------|---------------|---------------|--------------|
--L--------L--|--L------------|--L------------|--L------------|--L--------L--|


  H.              S S S S S S S S S S S S    E  S E  E  E  S S S  
---------------|--------------------------|----------------------|
---------------|--------------------------|----------------------|
---------------|--------------------------|----------------------|
---------------|--------------------------|----------------------|
---------------|--------------------------|----------------------|
--L------------|--3-0-0-3-0-0-3-0-0-3-0-0-|--9--8-7--6--3--0-0-0-|


  E  S E  E  S E     E  S E  E  E  S S S    S S S S S S    E  S E  E  E  S S S  
------------------|----------------------|--------------|----------------------|
------------------|----------------------|--------------|----------------------|
------------------|----------------------|--------------|----------------------|
------------------|----------------------|--------------|----------------------|
------------------|----------------------|--------------|----------------------|
--9--8-7--6--3-0--|--9--8-7--6--3--0-0-0-|--3-0-0-3-0-0-|--9--8-7--6--3--0-0-0-|


  E  S E  E  S E     E  S E  E  E  S S S    S S S  S S S S S  S S S S S  S S  
------------------|----------------------|-----------------------------------|
------------------|----------------------|-----------------------------------|
------------------|----------------------|-----------------------------------|
------------------|----------------------|-----------------------------------|
------------------|----------------------|-----------------------------------|
--9--8-7--6--3-0--|--9--8-7--6--3--0-0-0-|--3-0-6p-0-0-3-0-6p-0-0-3-0-6p-0-0-|


  E  S E  E  E  S S S    E  S E  E  S S S    E  S E  E  E  S S S  
----------------------|-------------------|----------------------|
----------------------|-------------------|----------------------|
--6--5-4--3-----------|--6--5-4--3--------|--6--5-4--3-----------|
-------------5--2-2-2-|-------------5-2-2-|-------------5--2-2-2-|
----------------------|-------------------|----------------------|
----------------------|-------------------|----------------------|


  S S S S S S E  E     E  S E  E  E  S S S    E  S E  E  S S S  
--------------------|----------------------|-------------------|
--------------------|----------------------|-------------------|
--------------3--4--|--6--5-4--3-----------|--6--5-4--3--------|
--5-2-2-5-2-2-------|-------------5--2-2-2-|-------------5-2-2-|
--------------------|----------------------|-------------------|
--------------------|----------------------|-------------------|


  E  S E  E  E  S S S    S S S S S S S S S S S S S S S S S S S S  
----------------------|------------------------------------------|
----------------------|------------------------------------------|
--6--5-4--3-----------|------3---------3---------3---------3-----|
-------------5--2-2-2-|--5-2---2-2-5-2---2-2-5-2---2-2-5-2---2-2-|
----------------------|------------------------------------------|
----------------------|------------------------------------------|


  Q    S S S Q    S Q       Q    E.  E.  S S S S S    Q    S S S Q    S Q     
-------------------------|-------------------------|-------------------------|
-------------------------|-------------------------|-------------------------|
--------------------4----|-----------9-------------|--------------------4----|
-----------5------5------|-------5-----------------|-----------5------5------|
---------2---------------|--2------------5-2-4-----|---------2---------------|
--0----L-----3-----------|---------------------3-0-|--0----L-----3-----------|


  Q    E.  E.  S S S S S S S S S S    Q    S S S Q    S Q     
-----------------------------------|-------------------------|
-----------------------------------|-------------------------|
-----------9-----------------------|-------------------------|
-------5---------------------------|-------------------------|
--2------------5-2-4-----5-2-4-----|--0----L-1-2-3-----------|
---------------------3-0-------3-0-|------------------3-2----|


  Q    E.  E.  S S S S S    Q    S S S Q    S Q     
-------------------------|-------------------------|
-----------4-------------|-------------------------|
-------------------------|-------------------------|
--4----------------------|-------------------------|
-------3-------5-2-4-----|--0----L-1-2-3-----------|
---------------------5-3-|------------------3-2----|


  Q    S S S E.  S S S S S S S S S S S S S S S    E  S E  E  E  S S S  
-----------------------------------------------|----------------------|
-------------6---------------------------------|----------------------|
-----------5-----------------------------------|--6--5-4--3--0--------|
--4------5-------------------------------------|----------------2-2-2-|
-------3---------5-2-4-----5-2-4-----4-2-------|----------------------|
-----------------------5-3-------5-3-----5-3-2-|----------------------|


  E  S E  E  S E     E  S E  E  E  S S S    E  S E  S E  E   
------------------|----------------------|------------------|
------------------|----------------------|------------------|
--6--5-4--3--0----|--6--5-4--3--0--------|------------3--4--|
---------------2--|----------------2-2-2-|--5--2-5--2-------|
------------------|----------------------|------------------|
------------------|----------------------|------------------|


  E  S E  E  E  S S S    E  S E  E  E  S    E  S E  E  E  S S S  
----------------------|------------------|----------------------|
----------------------|------------------|----------------------|
--6--5-4--3--0--------|--6--5-4--3--0----|--6--5-4--3--0--------|
----------------2-2-2-|----------------2-|----------------2-2-2-|
----------------------|------------------|----------------------|
----------------------|------------------|----------------------|


  S S S S S S S S S    S E.  H                     S S S S S S S S S S S S  
--------------------|-----------------|----|----|--------------------------|
--------------------|-----------------|----|----|--------------------------|
--3---4-----3---4---|--6--------------|----|----|--------------------------|
----2---2-2---2---2-|-----------------|----|----|--------------------------|
--------------------|-----------------|----|----|--------------------------|
--------------------|-----------------|----|----|--3-0-0-3-0-0-3-0-0-6-L-7-|


  S H.              E  S E  E  E  S S S    E  S E  E  E  S S S  
-----------------|----------------------|----------------------|
-----------------|----------------------|----------------------|
-----------------|----------------------|----------------------|
-----------------|----------------------|----------------------|
-----------------|----------------------|----------------------|
--L--------------|--9--8-7--6--3--0-0-0-|--9--8-7--6--3--0-0-0-|


  E  S E  E  E  S S S    S S S S S S E  E     E  S E  E  E  S S S  
----------------------|--------------------|----------------------|
----------------------|--------------------|----------------------|
----------------------|--------------------|----------------------|
----------------------|--------------------|----------------------|
----------------------|--------------------|----------------------|
--9--8-7--6--3--0-0-0-|--3-0-0-3-0-0-6--7--|--9--8-7--6--3--0-0-0-|


  E  S E  E  E  S S S    E  S E  E  E  S S S    S S S S S S S S S S S S  
----------------------|----------------------|--------------------------|
----------------------|----------------------|--------------------------|
----------------------|----------------------|--------------------------|
----------------------|----------------------|--------------------------|
----------------------|----------------------|--------------------------|
--9--8-7--6--3--0-0-0-|--9--8-7--6--3--0-0-0-|--6-0-7-0-0-6-0-7-0-9-0-0-|


  S S S S S S S S S  S S S    E  S S S S E  S S S S    Q    Q    Q     
---------------------------|------------------------|-----------------|
---------------------------|------------------------|-----------------|
---------------------------|------------------------|-----------------|
---------------------------|-------------5--L-L-----|--9--------------|
---------------------------|------------------------|------------7----|
--7-0-9-0-0-7-0-9-0-10-0-0-|--0--L-L---0----------7-|-------7---------|


  E  S S S S S    E  S S S S E  S S S S    Q    Q    Q     
---------------|------------------------|-----------------|
---------------|------------------------|-----------------|
--9--7-4-6-----|------------------------|-----------------|
-----------5-2-|-------------5--L-L-----|--9--------------|
---------------|------------------------|------------7----|
---------------|--0--L-L---0----------7-|-------7---------|


  E  S S S S S S S S S S    E  S E  E  E  S S S    E  S E  E  E  S S S  
-------------------------|----------------------|----------------------|
-------------------------|----------------------|----------------------|
--9--7-4-6-----7-4-6-----|--6--5-4--3--0--------|--9--8-7--6--3--0-0-0-|
-----------5-2-------5-2-|----------------2-2-2-|----------------------|
-------------------------|----------------------|----------------------|
-------------------------|----------------------|----------------------|


  E  S E  E  E  S S S    S S S S S S S S S S S S S S S    E  S E  E  E  S S S  
----------------------|--------------------------------|----------------------|
--7--6-5--4--1--------|--------------------------------|----------------------|
----------------3-3-3-|------3---------3---------3-----|--6--5-4--3--0--------|
----------------------|--5-2---2-2-5-2---2-2-5-2---2-2-|----------------2-2-2-|
----------------------|--------------------------------|----------------------|
----------------------|--------------------------------|----------------------|


  E  S E  E  E  S S S    E  S E  E  E  S S S    S S S S S S S S S S S S S S S  
----------------------|----------------------|--------------------------------|
----------------------|--7--6-5--4--1--------|----------------------4---4-----|
--9--8-7--6--3--0-0-0-|----------------3-3-3-|--3---3-----6---6---------------|
----------------------|----------------------|----2---2-2---2---2-2---2---2-2-|
----------------------|----------------------|--------------------------------|
----------------------|----------------------|--------------------------------|


  S S S S S S S S S S S S S S S S S S S S  
------------------------------------------|
------------------------------------------|
------------------------------------------|
------------------------------------------|
------1-2---1-------------1-2---1---------|
--3-4-----4---3-4-3-0-3-4-----4---3-4-3-0-|


  S S S S S S S S S S S S S S S S S S S S  
------------------------------------------|
------------------------------------------|
------------------------------------------|
------------------------------------------|
------4-5---4-------------4-5---4---------|
--6-7-----7---6-7-6-0-6-7-----7---6-7-6-0-|


  S S S S S S S S S S S S S S S S S S S S  
------------------------------------------|
------------------------------------------|
------------------------------------------|
------------------------------------------|
------1-2---1-------------1-2---1---------|
--3-4-----4---3-4-3-0-3-4-----4---3-4-3-0-|


  S S S S S S S S S S S S S S S S S S S S    E  E  E.  E.   
------------------------------------------|----------------|
------------------------------------------|----------------|
------------------------------------------|----------------|
------------------------------------------|----------------|
------4-5---4-------------4-5---4---------|--2--1----------|
--6-7-----7---6-7-6-0-6-7-----7---6-7-6-0-|--------3---0---|


  E  E  E.  E  E  E     E  E  E.  E.     E  E  E.  E  E  E     E  E  E.  E.   
---------------------|----------------|---------------------|----------------|
---------------------|----------------|---------------------|----------------|
---------------------|----------------|---------------------|----------------|
---------------------|----------------|---------------------|----------------|
--2--1---------------|--2--1----------|--2--1---------------|--5--4----------|
--------3---4--3--0--|--------3---0---|--------3---4--3--0--|--------6---0---|


  E  E  E.  E  E  E     E  E  E.  E.     E  E  E.  E  E  E     E  E  E.  E.   
---------------------|----------------|---------------------|----------------|
---------------------|----------------|---------------------|----------------|
---------------------|----------------|---------------------|----------------|
---------------------|----------------|---------------------|----------------|
--5--4---------------|--5--4----------|--5--4---------------|--7--5----------|
--------6---7--6--0--|--------6---0---|--------6---7--6--0--|--------6---0---|


  E  E  E.  E  E  E     E  E  E.  E.     E  E  E.  E  E  E   
---------------------|----------------|---------------------|
---------------------|----------------|---------------------|
---------------------|----------------|---------------------|
---------------------|--6-------------|--6------------------|
--7--5---------------|-----7--5-------|-----7--5------------|
--------6---3--4--0--|------------0---|------------6--7--0--|


  S S S S S S S S S S    S S S  S S S  S S  S  S  
----------------------|------------------9-11----|
----------------------|------8-10---8-10------10-|
----------------7-9---|--7-9------9--------------|
------6-8---6-8-----8-|--------------------------|
----------7-----------|--------------------------|
--4-6-----------------|--------------------------|


  S S  S S S S S S S S S S S S S S    W                   H.           E  E    
--9--------------------------------|-------------------|----------------------|
----8-10---8-----------------------|-------------------|----------------------|
---------9---7-9---7---------------|-------------------|----------------------|
-----------------8---6-8---6-------|-------------------|----------------------|
-------------------------7---5-7---|-------------------|----------------------|
---------------------------------6-|-------------------|---------------7--L\--|


  S S S S S S S S S S S S S S S S    S S S S S S S S S S S S S S S S            
----------------------------------|----------------------------------|----|----|
----------------------------------|----------------------------------|----|----|
----------------------------------|----------------------------------|----|----|
----------------------------------|----------------------------------|----|----|
------4---4-------4---4-------5---|------4---4-------4---4-------7---|----|----|
--0-3---3---3-0-3---3---3-0-6---6-|--0-3---3---3-0-3---3---3-0-6---6-|----|----|


  Q    E  Q    H.           E     Q    E  Q    Q    Q    S S S S S S  
-------------------------------|-------------------------------------|
-------------------------------|-------------------------------------|
-------------------------------|-------------------------------------|
-------------------------------|-------------------------------------|
-------------------------------|-------------------------1-2-4-2-4-2-|
--0-------0--------------------|--0-------0--------------------------|


  S S S S S S S S S S S S S S S S S S S S S S S S  
--------------------------------------------------|
--------------------------------------------------|
--------------------------------------------------|
--------------------------------------------------|
--4-----4-5-4-------4-5-4-------4-----------------|
----7-6-------7-6-7-------7-6-7---7-6-0-0-0-0-0-0-|


  S S S S S S S S S S S S S S S S S S S S S S S S  
--------------------------------------------------|
--------------------------------------------------|
--------------------------------------------------|
--------------------4-----------------------------|
--------4-5-4---------7-5-4-------4---4---------4-|
--7-6-7-------7-6-7---------7-6-7---7---7-6-6-7---|


  S S S S S S S S S S S S S S S S S S S S S S S S  
--------------------------------------------------|
--------------------------------------------------|
--------------------------------------------------|
--------------------------------------------------|
--4-----4-5-4-------4-5-4-------4-----------------|
----7-6-------7-6-7-------7-6-7---7-6-0-0-0-0-0-0-|


  S S S S S S S S S S S S S S S S S S S S S S S S  
--------------------------------------------------|
--------------------------------------------------|
--------------------------------------------------|
--------------------4-----------------------------|
--------4-5-4---------7-5-4-------4---4---------4-|
--7-6-7-------7-6-7---------7-6-7---7---7-6-6-7---|


  S S S S S S S S S S S S S S S S S S S S S S S S  
--------------------------------------------------|
--------------------------------------------------|
--------------------------------------------------|
--------------------------------------------------|
--4-----4-5-4-------4-5-4-------4-----------------|
----7-6-------7-6-7-------7-6-7---7-6-0-0-0-0-0-0-|


  S S S S S S S S S S S S S S S S S S S S S S S S  
--------------------------------------------------|
--------------------------------------------------|
--------------------------------------------------|
--------------------4-----------------------------|
--------4-5-4---------7-5-4-------4---4---------4-|
--7-6-7-------7-6-7---------7-6-7---7---7-6-6-7---|


  S S S S S S S S S S S S S S S S S S S S S S S S  
--------------------------------------------------|
--------------------------------------------------|
--------------------------------------------------|
--------------------------------------------------|
--4-----4-5-4-------4-5-4-------4-----------------|
----7-6-------7-6-7-------7-6-7---7-6-0-0-0-0-0-0-|


  S S S S S S S S S S S S S S S S S S S S S S S S  
--------------------------------------------------|
--------------------------------------------------|
--------------------------------------------------|
--------------------4-----------------------------|
--------4-5-4---------7-5-4-------4---4---------4-|
--7-6-7-------7-6-7---------7-6-7---7---7-6-6-7---|


  S. S. S. S. S. S. S. S. S. S. S. S. S. S. S. S.  
--------------------------------------------------|
--------------------------------------------------|
--------------------------------------------------|
--------------------------------------------------|
--------4-----4-----------4-----4-----------5-----|
--0--3-----3-----3--0--3-----3-----3--0--3-----6--|


  S. S. S. S. S. S. S. S. S. S. S. S. S. S. S. S.  
--------------------------------------------------|
--------------------------------------------------|
--------------------------------------------------|
--------------------------------------------------|
--------4-----4-----------4-----4-----------7-----|
--0--3-----3-----3--0--3-----3-----3--0--3-----6--|


  S S S S S S S S S S S S S S S S S S S S S S S S  
--------------------------------------------------|
--------------------------------------------------|
--------------------------------------------------|
--------------------------------------------------|
--4-----4-5-4-------4-5-4-------4-----------------|
----7-6-------7-6-7-------7-6-7---7-6-0-0-0-0-0-0-|


  S S S S S S S S S S S S S S S S S S S S S S S S  
--------------------------------------------------|
--------------------------------------------------|
--------------------------------------------------|
--------------------4-----------------------------|
--------4-5-4---------7-5-4-------4---4---------4-|
--7-6-7-------7-6-7---------7-6-7---7---7-6-6-7---|


  S S S S S S S S S S S S S S S S S S S S S S S S  
--------------------------------------------------|
--------------------------------------------------|
--------------------------------------------------|
--------------------------------------------------|
--4-----4-5-4-------4-5-4-------4-----------------|
----7-6-------7-6-7-------7-6-7---7-6-0-0-0-0-0-0-|


  S S S S S S S S S S S S S S S S S S S S S S S S  
--------------------------------------------------|
--------------------------------------------------|
--------------------------------------------------|
--------------------4-----------------------------|
--------4-5-4---------7-5-4-------4---4---------4-|
--7-6-7-------7-6-7---------7-6-7---7---7-6-6-7---|


  S. S. S. S. S. S. S. S. S. S. S. S. S. S. S. S.  
--------------------------------------------------|
--------------------------------------------------|
--------------------------------------------------|
--------------------------------------------------|
--------4-----4-----------4-----4-----------5-----|
--0--3-----3-----3--0--3-----3-----3--0--3-----6--|


  S. S. S. S. S. S. S. S. S. S. S. S. S. S. S. S.  
--------------------------------------------------|
--------------------------------------------------|
--------------------------------------------------|
--------------------------------------------------|
--------4-----4-----------4-----4-----------7-----|
--0--3-----3-----3--0--3-----3-----3--0--3-----6--|


  S. S. S. S. S. S. S. S. S. S. S. S. S. S. S. S.  
--------------------------------------------------|
--------------------------------------------------|
--------------------------------------------------|
--------------------------------------------------|
--------4-----4-----------4-----4-----------5-----|
--0--3-----3-----3--0--3-----3-----3--0--3-----6--|


  S. S. S. S. S. S. S. S. S. S. S. S. S. S. S. S.    H              
--------------------------------------------------|-----------|----|
--------------------------------------------------|-----------|----|
--------------------------------------------------|-----------|----|
--------------------------------------------------|-----------|----|
--------4-----4-----------4-----4-----------7-----|-----------|----|
--0--3-----3-----3--0--3-----3-----3--0--3-----6--|--0--------|----|


                         P                                        
         |-3-| |--3--|                                            
  Q.     S S S E  E  E   E  E      S S E  E  S S S S S S S S S S  
--------------------------------|--------------------------------|
--------------------------------|--------------------------------|
------------------------18--L\--|--------------------------------|
------------------------17--L\--|--------------------------------|
--------------------------------|--------------------4-5---4-----|
---------0-0-0-0--0--0----------|--7-6-0-----0-0-6-7-----7---6-0-|


                     P                                            
  S S E  E  S S S S  E  S S S S    S S E  E  S S S S S S S S S S  
--------------------------------|--------------------------------|
--------------------------------|--------------------------------|
--------------------19----------|--------------------------------|
--------------------18----------|--------------------------------|
--------------------------4-----|--------------------1-2---1-----|
--7-6-0-----0-0-0-0-----0---2-0-|--7-6-0-----0-0-3-4-----4---3-0-|


                            P      P                         
            |-3-| |--3--|                                    
  S S E  E  S S S E  E  E   E  E   Q       W                 
----------------------------------------|-------------------|
----------------------------------------|-------------------|
---------------------------18-----19----|-------------------|
---------------------------17-----18----|-------------------|
----------------------------------------|-------------------|
--4-3-0-----0-0-0-0--0--0------0--------|--0----------------|


  H        H           W                   H        H         
--------------------|-------------------|--------------------|
--------------------|-------------------|--------------------|
--------------------|-------------------|--------------------|
--------------------|-------------------|--------------------|
--5-----------------|-------------------|--5--------3--------|
-----------5--------|--0----------------|--------------------|


  W                   H        H           H        H         
-------------------|--------------------|--------------------|
-------------------|--------------------|--------------------|
-------------------|--------------------|--------------------|
-------------------|--------------------|--------------------|
-------------------|--5-----------------|--------------------|
--0----------------|-----------5--------|--7--------3--------|


  H        H           W                   H        H         
--------------------|-------------------|--------------------|
--------------------|-------------------|--------------------|
--------------------|-------------------|--------------------|
--------------------|-------------------|--------------------|
--------------------|-------------------|--5-----------------|
--5--------2--------|--0----------------|-----------5--------|


  W                   H        H           W                 
-------------------|--------------------|-------------------|
-------------------|--------------------|-------------------|
-------------------|--------------------|-------------------|
-------------------|--------------------|-------------------|
-------------------|--5--------3--------|-------------------|
--0----------------|--------------------|--0----------------|


  H        H           H        H           H        H         
--------------------|--------------------|--------------------|
--------------------|--------------------|--------------------|
--------------------|--------------------|--------------------|
--------------------|--------------------|--------------------|
--5-----------------|--------------------|--------------------|
-----------5--------|--7--------3--------|--5--------2--------|


  W                   W                   W                   W                 
-------------------|-------------------|-------------------|-------------------|
-------------------|-------------------|-------------------|-------------------|
-------------------|-------------------|-------------------|-------------------|
-------------------|-------------------|-------------------|-------------------|
-------------------|-------------------|-------------------|-------------------|
--0----------------|--L----------------|--L----------------|--L----------------|


-------------------|-------------------|-------------------|
-------------------|-------------------|-------------------|
-------------------|-------------------|-------------------|
-------------------|-------------------|-------------------|
-------------------|-------------------|-------------------|
-------------------|-------------------|-------------------|


  E  E  E  E  E  E  Q       E  E  E  E  Q    E  E     E  E  E  E  Q    E  E   
-------------------------|-------------------------|-------------------------|
-------------------------|-------------------------|-------------------------|
-------------------------|-------------------------|-------------------------|
-------------------------|-------------------------|-------------------------|
--------7----------------|-------------------------|-------------------------|
--5--6-----6--5--0--3----|--3--0--0--0--0----0--0--|--3--0--0--0--0----0--0--|


  E  E  E  E  Q    E  E     E  E  E  E  E  E  Q       E  E  E  E  Q    E  E   
-------------------------|-------------------------|-------------------------|
-------------------------|-------------------------|-------------------------|
-------------------------|-------------------------|-------------------------|
-------------------------|-------------------------|-------------------------|
-------------------------|--------7----------------|-------------------------|
--3--0--0--0--0----0--0--|--5--6-----6--5--0--3----|--3--0--0--0--0----0--0--|


  E  E  E  E  Q    E  E     E  E  E  E  Q    E  E     E  E  E  E  E  E  Q     
-------------------------|-------------------------|-------------------------|
-------------------------|-------------------------|-------------------------|
-------------------------|-------------------------|-------------------------|
-------------------------|-------------------------|-------------------------|
-------------------------|-------------------------|--------7----------------|
--3--0--0--0--0----0--0--|--3--0--0--0--0----0--0--|--5--6-----6--5--0--3----|


  E  E  E  E  Q    E  E     E  E  E  E  Q    E  E     E  E  E  E  Q    E  E   
-------------------------|-------------------------|-------------------------|
-------------------------|-------------------------|-------------------------|
-------------------------|-------------------------|-------------------------|
-------------------------|-------------------------|-------------------------|
-------------------------|-------------------------|-------------------------|
--3--0--0--0--0----0--0--|--3--0--0--0--0----0--0--|--3--0--0--0--0----0--0--|


  E  E  E  E  E  E  Q       E  E  E  E  Q    E  E     E  E  E  E  Q    E  E   
-------------------------|-------------------------|-------------------------|
-------------------------|-------------------------|-------------------------|
-------------------------|-------------------------|-------------------------|
-------------------------|-------------------------|-------------------------|
--------7----------------|-------------------------|-------------------------|
--5--6-----6--5--0--3----|--3--0--0--0--0----0--0--|--3--0--0--0--0----0--0--|


  E  E  E  E  Q    E  E     E  E  E  E  E  E  Q       E  E  E  E  Q    E  E   
-------------------------|-------------------------|-------------------------|
-------------------------|-------------------------|-------------------------|
-------------------------|-------------------------|-------------------------|
-------------------------|-------------------------|-------------------------|
-------------------------|--------7----------------|-------------------------|
--3--0--0--0--0----0--0--|--5--6-----6--5--0--3----|--3--0--0--0--0----0--0--|


  E  E  E  E  Q    E  E     E  E  E  E  Q    E  E     E  E  E  E  E  E  Q     
-------------------------|-------------------------|-------------------------|
-------------------------|-------------------------|-------------------------|
-------------------------|-------------------------|-------------------------|
-------------------------|-------------------------|-------------------------|
-------------------------|-------------------------|--------7----------------|
--3--0--0--0--0----0--0--|--3--0--0--0--0----0--0--|--5--6-----6--5--0--3----|


  E  E  E  E  Q    E  E     E  E  E  E  Q    E  E     E  E  E  E  Q    E  E   
-------------------------|-------------------------|-------------------------|
-------------------------|-------------------------|-------------------------|
-------------------------|-------------------------|-------------------------|
-------------------------|-------------------------|-------------------------|
-------------------------|-------------------------|-------------------------|
--3--0--0--0--0----0--0--|--3--0--0--0--0----0--0--|--3--0--0--0--0----0--0--|


  E  E  E  E  E  E  Q       E  E  E  E  Q    E  E     E  E  E  E  Q    E  E   
-------------------------|-------------------------|-------------------------|
-------------------------|-------------------------|-------------------------|
-------------------------|-------------------------|-------------------------|
-------------------------|-------------------------|-------------------------|
--------7----------------|-------------------------|-------------------------|
--5--6-----6--5--0--3----|--3--0--0--0--0----0--0--|--3--0--0--0--0----0--0--|


  E  E  E  E  Q    E  E     E  E  E  E  E  E  Q       E  E  E  E  Q    E  E   
-------------------------|-------------------------|-------------------------|
-------------------------|-------------------------|-------------------------|
-------------------------|-------------------------|-------------------------|
-------------------------|-------------------------|-------------------------|
-------------------------|--------7----------------|-------------------------|
--3--0--0--0--0----0--0--|--5--6-----6--5--0--3----|--3--0--0--0--0----0--0--|


  E  E  E  E  Q    E  E     E  E  E  E  Q    E  E     E  E  E  E  E  E  Q      
-------------------------|-------------------------|-------------------------||
-------------------------|-------------------------|-------------------------||
-------------------------|-------------------------|-------------------------||
-------------------------|-------------------------|-------------------------||
-------------------------|-------------------------|--------7----------------||
--3--0--0--0--0----0--0--|--3--0--0--0--0----0--0--|--5--6-----6--5--0--3----||




Duration Legend
---------------
W - whole
H - half
Q - quarter
E - 8th
S - 16th
T - 32nd
X - 64th
. - note dotted
|-n-|  - n-tuplets


Tablature Legend
----------------
L - tied note
x - dead note
g - grace note
(n) - ghost note
> - accentuded note
NH - natural harmonic
AH - artificial harmonic
TH - tapped harmonic
SH - semi harmonic
PH - pitch harmonic
h - hammer on
p - pull off
b - bend
br - bendRelease
pb - preBend
pbr - preBendRelease
brb - bendReleaseBend
\n/ - tremolo bar dip
\n - tremolo bar dive
-/n - tremolo bar Release up
/n\ - tremolo bar inverted dip
/n - tremolo bar return
-\n - tremolo bar Release down
S - shift slide
s - legato slide
/ -  slide into from below or out of upwards
\ -  slide into from above or out of downwards
~ - vibrato
W - wide vibrato
tr - trill
TP - tremolo picking
T - tapping
S - slap
P - pop
< - fade in

            
            
Suggest correction
Creating personal tab
Creating personal tab
You can edit any tab online and save it as your Personal.

You can edit, replace or remove any tab part or add personal notes – all changes will be seen only by you.

Personal tabs can be accessed anytime from any device, even offline.
Learn more »
comments
print report bad tab
10 comments total. Showing first comments.
0 reply
Pedro Zappa 2,733 Jul 01, 2007 04:22 AM

This is no bigginer's tab... grerat work!! xD

+1 reply
Cthulhu_Calls 45 Sep 06, 2007 10:00 AM

dude myung plays this on a 5-string bass

0 reply
Cthulhu_Calls 45 Oct 03, 2007 01:08 AM

good tab tho...

guest
You may want to rate the tab now too:
select rating
Wanna post a correction for this tab? Suggest correction