Oops, an error
Loading. Please wait.

The Glass Prison bass

version 1
version 1

Whole song

8,989 views 1 this week
no commentswrite comment
1 2 3 4 5
2 more votes to show rating
add to favorites
×
Save as Personal and add changes to this tab that will be seen only by you. Learn more ›
×
You can save this tab as Personal to edit and correct it or add notes. All changes will be seen only by you. Learn more »
launch autoscroll
font size
0
reset
guitar tuner
edit
Autoscroll
slow
fast
+/-
esc
set tempo
stop
Author
Difficulty
                        NH                                     
     H        Q    E    E       E   E   E   E   E   E  E   E   
C||------------------------||----------14------13-------------|
G||------------------------||------16------16------14-----14--|
D||-------------------<>4--||*--------------------------------|
A||------------------------||*--------------------------------|
E||------------------------||---------------------------------|
B||------------------------||---0----------------------0------|


   E   E   E   E   E   E   E   E     E   E   E   E   E   E  E   E   
------11----------11----------11--|---------14------13-------------|
--12------12--13------13--14------|-----16------16------14-----14--|
----------------------------------|--------------------------------|
----------------------------------|--------------------------------|
----------------------------------|--------------------------------|
----------------------------------|--0----------------------0------|


                             NH   NH                               
   E   E   E   E   E   E     E    E   6x  E  E  E  E  E  E  E  E   
------11----------11------------------||--------------------------|
--12------12--13------13--------------||--------------------------|
--------------------------<>12--<>4--*||--------------------------|
-------------------------------------*||--------5-----4-----------|
--------------------------------------||-----7-----7-----5-----5--|
--------------------------------------||--0-----------------0-----|


  E  E  E  E  E  E  E  E     E  E  E  E  E  E  E  E   
--------------------------|--------------------------|
--------------------------|--------------------------|
--------------------------|--------------------------|
-----2--------2--------2--|--------5-----4-----------|
--3-----3--4-----4--5-----|-----7-----7-----5-----5--|
--------------------------|--0-----------------0-----|


  E  E  E  E  E  E  E  E     E  E  E  E  E  E  E  E   
--------------------------|--------------------------|
--------------------------|--------------------------|
--------------------------|--------------------------|
-----2--------2-----------|--------5-----4-----------|
--3-----3--4-----4-----4--|-----7-----7-----5-----5--|
--------------------2-----|--0-----------------0-----|


  E  E  E  E  E  E  E  E     E  E  E  E  E  E  E  E   
--------------------------|--------------------------|
--------------------------|--------------------------|
--------------------------|--------------------------|
-----2--------2--------2--|--------5-----4-----------|
--3-----3--4-----4--5-----|-----7-----7-----5-----5--|
--------------------------|--0-----------------0-----|


  E  E  E  E  E  E  E  E     W                   E  E  H.                    
--------------------------|-------------------|---------------------|-------|
--------------------------|-------------------|---------------------|-------|
--------------------------|-------------------|---------------------|-------|
-----2--------2-----------|-------------------|---------------------|-------|
--3-----3--4-----4-----4--|--L----------------|---------------------|-------|
--------------------2-----|-------------------|--0------------------|-------|


              Q    Q    E  S S E  E     E  S S E  E  E  S S E  E   
-----------|-------------------------|----------------------------|
-----------|-------------------------|----------------------------|
-----------|-------------------------|----------------------------|
-----------|-------------------------|----------------------------|
-----------|-------------------------|----------------------------|
-----------|--0----0-------0-0-3--0--|-----0-0-3--0-----0-0-3--0--|


  E   E  E   E  E   E  E   E  E   E       Q    Q    E  S S E  E   
-------------------------------------||--------------------------|
-------------------------------------||--------------------------|
----------------0h-----0h-----0h-----||*-------------------------|
---------0h--2------2------2------2--||*-------------------------|
--0h--2------------------------------||--------------------------|
-------------------------------------||---0----0-------0-0-3--0--|


  E  S S E  E  E  S S E  E     E   E  E   E  E   E  E   E  E   E   4x
----------------------------|--------------------------------------||
----------------------------|--------------------------------------||
----------------------------|----------------0h-----0h-----0h-----*||
----------------------------|---------0h--2------2------2------2--*||
----------------------------|--0h--2-------------------------------||
-----0-0-3--0-----0-0-3--0--|--------------------------------------||


   S S E  E  S S E  E  S S E     S S E  E  S S E  E  S S E   
------------------------------|-----------------------------|
------------------------------|-----------------------------|
*-----------------------------|-----------------------------|
*-----------------------------|-----------------------------|
------------------------------|-----------------------------|
---3-2-0--0--3-2-0--0--0-0-0--|--3-2-0--0--3-2-0--0--0-0-0--|


  S S E  E  S S E  E  S S E     S S E  S S E        S S E  E  S S E  E  S S E   
-----------------------------|-----------------||------------------------------|
-----------------------------|-----------------||------------------------------|
-----------------------------|----------------*||*-----------------------------|
-----------------------------|----------------*||*-----------------------------|
-----------------------------|-----------------||------------------------------|
--3-2-0--0--3-2-0--0--0-0-0--|--3-2-1--5-3-0---||---3-2-0--0--3-2-0--0--0-0-0--|


  S S E  E  S S E  E  S S E     S S E  E  S S E  E  S S E     S S E  S S S S    
-----------------------------|-----------------------------|------------------||
-----------------------------|-----------------------------|------------------||
-----------------------------|-----------------------------|-----------------*||
-----------------------------|-----------------------------|-----------------*||
-----------------------------|-----------------------------|------------------||
--3-2-0--0--3-2-0--0--0-0-0--|--3-2-0--0--3-2-0--0--0-0-0--|--3-2-0--3-0-5-0--||


   S S E  E  S S E  E  S S E     S S E  E  S S E  E  S S E   
------------------------------|-----------------------------|
------------------------------|-----------------------------|
*-----------------------------|-----------------------------|
*-----------------------------|-----------------------------|
------------------------------|-----------------------------|
---6-5-3--3--6-5-3--3--3-3-3--|--6-5-3--3--6-5-3--3--3-3-3--|


  S S E  E  S S E  E  S S E     S S E  S S S S    
-----------------------------|------------------||
-----------------------------|------------------||
-----------------------------|-----------------*||
-----------------------------|-----------------*||
-----------------------------|-------------3----||
--6-5-3--3--6-5-3--3--3-3-3--|--6-5-3--6-3---3--||


   S S E  E  S S E  E  S S E     S S E  E  S S E  E  S S E   
------------------------------|-----------------------------|
------------------------------|-----------------------------|
*-----------------------------|-----------------------------|
*-----------------------------|-----------------------------|
------------------------------|-----------------------------|
---5-4-2--2--5-4-2--2--2-2-2--|--5-4-2--2--5-4-2--2--2-2-2--|


  S S E  E  S S E  E  S S E     S S E  S S S S      W.                
-----------------------------|------------------||-------------------|
-----------------------------|------------------||-------------------|
-----------------------------|-----------------*||-------------------|
-----------------------------|-----------------*||--2----------------|
-----------------------------|-------------2----||-------------------|
--5-4-2--2--5-4-2--2--2-2-2--|--5-4-2--5-2---2--||--0----------------|


  W                Q    S S S S    S S S S E  S S E  S S E  E  S S E  E  E   
--------------------------------|-------------------------------------------|
--------------------------------|-------------------------------------------|
--------------------------------|-------------------------------------------|
--L----------------L------------|-------------------------------------------|
--------------------------------|--8-7--------7-5--------------8-7----------|
--L----------------L----5-0-7-0-|------0-0-0------0--7-6-0--0------0--0--0--|


  S S S S E  S S E  S S E  E  S S E  E  S S  
--------------------------------------------|
--------------------------------------------|
--------------------------------------------|
--------------------------------------------|
--8-7--------7-5--------------8-7-----------|
------0-0-0------0--7-6-0--0------0--0--5-6-|


  S S S S E  S S E  S S E  E  S S E  E  E   
-------------------------------------------|
-------------------------------------------|
-------------------------------------------|
-------------------------------------------|
--8-7--------7-5--------------8-7----------|
------0-0-0------0--7-6-0--0------0--0--0--|


  S S S S E  S S E  S S E  E  S S S  S S S S S  
-----------------------------------------------|
-----------------------------------------------|
----------------------------------7-10-9-7-----|
------------------------------7-9----------9-7-|
--8-7--------7-5-------------------------------|
------0-0-0------0--7-6-0--0-------------------|


    S S E  E  S S E  S S E  E  S S E  E  E   
|-------------------------------------------|
|-------------------------------------------|
|*------------------------------------------|
|*------------------------------------------|
|-------------------------------------------|
|---1-0-0--0--1-0-0--1-0-0--0--1-0-0--0--0--|


  S S E  E  S S E  S S E  E  S S E  E  E   
------------------------------------------|
------------------------------------------|
------------------------------------------|
------------------------------------------|
------------------------------------------|
--1-0-0--0--1-0-0--1-0-0--0--1-0-0--0--0--|


  S S E  E  S S E  S S E  E  S S E  E  E   
------------------------------------------|
------------------------------------------|
------------------------------------------|
------------------------------------------|
------------------------------------------|
--1-0-0--0--1-0-0--1-0-0--0--1-0-0--0--0--|


  S S E  E  S S E  S S E  E  S S E  E  E     
-------------------------------------------||
-------------------------------------------||
------------------------------------------*||
------------------------------------------*||
-------------------------------------------||
--1-0-0--0--1-0-0--1-0-0--0--1-0-0--0--0---||


  S S E  E  S S E  S S E  E  S S E  E  E   
------------------------------------------|
------------------------------------------|
------------------------------------------|
------------------------------------------|
------------------------------------------|
--6-5-3--3--6-5-3--6-5-3--3--6-5-3--3--3--|


  S S E  E  S S E  S S E  E  S S E  E  E   
------------------------------------------|
------------------------------------------|
------------------------------------------|
------------------------------------------|
------------------------------------------|
--6-5-3--3--6-5-3--6-5-3--3--6-5-3--3--3--|


  S S E  E  S S E  S S E  E  S S E  E  E   
------------------------------------------|
------------------------------------------|
------------------------------------------|
------------------------------------------|
------------------------------------------|
--6-5-3--3--6-5-3--6-5-3--3--6-5-3--3--3--|


  S S E  E  S S E  S S E  E  S S E  E  E   
------------------------------------------|
------------------------------------------|
------------------------------------------|
------------------------------------------|
------------------------------------------|
--6-5-3--3--6-5-3--6-5-3--3--6-5-3--3--3--|


  S S E  E  S S E  S S E  E  S S E  E  E   
------------------------------------------|
------------------------------------------|
------------------------------------------|
------------------------------------------|
------------------------------------------|
--5-4-2--2--5-4-2--5-4-2--2--5-4-2--2--2--|


  S S E  E  S S E  S S E  E  S S E  E  E   
------------------------------------------|
------------------------------------------|
------------------------------------------|
------------------------------------------|
------------------------------------------|
--5-4-2--2--5-4-2--5-4-2--2--5-4-2--2--2--|


  S S E  E  S S E  S S E  E  S S E  E  E   
------------------------------------------|
------------------------------------------|
------------------------------------------|
------------------------------------------|
------------------------------------------|
--5-4-2--2--5-4-2--5-4-2--2--5-4-2--2--2--|


  S S E  E  S S E  S S E  E  S S E  E  E       Q    Q    E  S S E  E   
------------------------------------------||--------------------------|
------------------------------------------||--------------------------|
------------------------------------------||*-------------------------|
------------------------------------------||*-------------------------|
------------------------------------------||--------------------------|
--5-4-2--2--5-4-2--5-4-2--2--5-4-2--2--2--||---0----0-------0-0-3--0--|


  E  S S E  E  E  S S E  E     E  E  E  E  E  E  E  E  E  E   4x
----------------------------|---------------------------------||
----------------------------|---------------------------------||
----------------------------|--------------0-----0-----0-----*||
----------------------------|--------0--2-----2-----2-----2--*||
----------------------------|--0--2---------------------------||
-----0-0-3--0-----0-0-3--0--|---------------------------------||


   S S E  E  S S E  E  S S E     S S E  E  S S E  E  S S E   
------------------------------|-----------------------------|
------------------------------|-----------------------------|
*-----------------------------|-----------------------------|
*-----------------------------|-----------------------------|
------------------------------|-----------------------------|
---3-2-0--0--3-2-0--0--0-0-0--|--3-2-0--0--3-2-0--0--0-0-0--|


  S S E  E  S S E  E  S S E     S S E  S S E   4x   S S E  E  S S E  E  S S E   
-----------------------------|-----------------||------------------------------|
-----------------------------|-----------------||------------------------------|
-----------------------------|----------------*||*-----------------------------|
-----------------------------|----------------*||*-----------------------------|
-----------------------------|-----------------||------------------------------|
--3-2-0--0--3-2-0--0--0-0-0--|--3-2-0--5-3-0---||---6-5-3--3--6-5-3--3--3-3-3--|


  S S E  E  S S E  E  S S E     S S E  E  S S E  E  S S E     S S E  S S S S    
-----------------------------|-----------------------------|------------------||
-----------------------------|-----------------------------|------------------||
-----------------------------|-----------------------------|-----------------*||
-----------------------------|-----------------------------|-----------------*||
-----------------------------|-----------------------------|-------------3----||
--6-5-3--3--6-5-3--3--3-3-3--|--6-5-3--3--6-5-3--3--3-3-3--|--6-5-3--6-3---3--||


  |--3--|  |--3--|                                   
  E  E  E  E  E  E       S S E  E  S S E  E  S S E   
--------------------||------------------------------|
--------------------||------------------------------|
--------------------||*-----------------------------|
--------------------||*-----------------------------|
-----------1--2--3--||------------------------------|
--6--5--3-----------||---5-4-2--2--5-4-2--2--2-2-2--|


  S S E  E  S S E  E  S S E     S S E  E  S S E  E  S S E     S S E  S S S S    
-----------------------------|-----------------------------|------------------||
-----------------------------|-----------------------------|------------------||
-----------------------------|-----------------------------|-----------------*||
-----------------------------|-----------------------------|-----------------*||
-----------------------------|-----------------------------|-------------2----||
--5-4-2--2--5-4-2--2--2-2-2--|--5-4-2--2--5-4-2--2--2-2-2--|--5-4-2--5-2---2--||


                 |--3--|  |--3--|                         
  S S E  S S S S E  E  E  E  E  E     Q.     Q.     Q     
-----------------------------------|---------------------|
-----------------------------------|---------------------|
-----------------------------------|---------------------|
-----------------------------------|---------2------0----|
-------------2---------------0--1--|--2------------------|
--5-4-2--5-2---2-5--4--2--4--------|---------------------|


  E  Q.     E  E  E  E     Q.     Q.     E  E     W                 
------------------------|----------------------|-------------------|
------------------------|----------------------|-------------------|
------------------------|----------------------|-------------------|
--L--5------2--0-----0--|---------2------0-----|-------------------|
------------------0-----|--2----------------0--|--L----------------|
------------------------|----------------------|-------------------|


  Q.     Q.     Q       E  Q.     E  E  E  E     Q.     Q    E  E  E   
---------------------|------------------------|-----------------------|
---------------------|------------------------|-----------------2-----|
---------------------|------------------------|--------------2-----2--|
---------2------0----|--L--5------2--0-----0--|---------2-------------|
--2------------------|------------------0-----|--2--------------------|
---------------------|------------------------|-----------------------|


  W                   Q.     Q.     Q       E  Q.     E  E  E  E   
-------------------|---------------------|------------------------|
-------------------|---------------------|------------------------|
--0----------------|---------------------|------------------------|
-------------------|---------2------0----|--L--5------2--0-----0--|
-------------------|--2------------------|------------------0-----|
-------------------|---------------------|------------------------|


  Q.     Q.     E  E     W                   Q.     Q.     Q     
----------------------|-------------------|---------------------|
----------------------|-------------------|---------------------|
----------------------|-------------------|---------------------|
---------2------0-----|-------------------|---------2------0----|
--2----------------0--|--L----------------|--2------------------|
----------------------|-------------------|---------------------|


  E  Q.     E  E  E  E     Q.     Q.     Q       Q.     Q.     Q     
------------------------|---------------------|---------------------|
------------------------|---------------------|---------------------|
------------------------|---------------------|---------------------|
--L--5------2--0-----0--|---------2------0----|---------------------|
------------------0-----|--2------------------|---------3------1----|
------------------------|---------------------|--3------------------|


  E  Q.     E  E  E  E     Q.     Q.     E  E     W                 
------------------------|----------------------|-------------------|
------------------------|----------------------|-------------------|
------------------------|----------------------|-------------------|
-----1------------------|----------------------|-------------------|
--L---------3--1-----1--|---------3------1-----|-------------------|
------------------1-----|--3----------------1--|--L----------------|


  Q.     Q.     Q       E  Q.     E  E  E  E     Q.     Q.     E  E   
---------------------|------------------------|----------------------|
---------------------|------------------------|----------------------|
---------------------|------------------------|----------------0-----|
---------------------|-----1------------------|-------------------3--|
---------3------1----|--L---------3--1-----1--|---------3------------|
--3------------------|------------------1-----|--3-------------------|


                  |--3--|                                                  
  Q    E  E  Q    E  E  E     Q.     Q.     Q       E  Q.     E  E  E  E   
---------------------------|---------------------|------------------------|
---------------------------|---------------------|------------------------|
---------------------------|---------------------|------------------------|
--1----3--1--L----3--1-----|---------------------|-----1------------------|
------------------------1--|---------3------1----|--L---------3--1-----1--|
---------------------------|--3------------------|------------------1-----|


  Q.     Q.     E  E     W                   Q.     Q.     Q     
----------------------|-------------------|---------------------|
----------------------|-------------------|---------------------|
----------------------|-------------------|---------------------|
----------------------|-------------------|---------------------|
---------3------1-----|-------------------|---------3------1----|
--3----------------1--|--L----------------|--3------------------|


  E  Q.     E  E  E  E     Q.     Q.     E  E     E  E  E  E  Q    Q     
------------------------|----------------------|------------------------|
------------------------|----------------------|------------------------|
------------------------|----------------------|------------------------|
-----1------------------|----------------------|--1--3--0---------------|
--L---------3--1-----1--|---------3------1-----|-----------3--L---------|
------------------1-----|--3----------------1--|------------------------|


  |----3----|                                               
  Q    Q    Q       W                   H.           E  E   
-----------------|-------------------|---------------------|
-----------------|-------------------|---------------------|
-----------------|-------------------|---------------------|
-----------------|-------------------|---------------------|
-----------------|-------------------|---------------------|
--3----5----2----|--0----------------|--L------------0--0--|


  E  E  E  E  E  E  E  E     E  E  E  E  E  E  E  E   
--------------------------|--------------------------|
--------------------------|--------------------------|
--------------------------|--------------------------|
--------5-----4-----------|-----2--------2--------2--|
-----7-----7-----5-----5--|--3-----3--4-----4--5-----|
--0-----------------0-----|--------------------------|


  E  E  E  E  E  E  E  E     E  E  E  E  E  E  E  E   
--------------------------|--------------------------|
--------------------------|--------------------------|
--------------------------|--------------------------|
--------5-----4-----------|-----2--------2--------2--|
-----7-----7-----5-----5--|--3-----3--4-----4--5-----|
--0-----------------0-----|--------------------------|


  E  E  E  E  E  E  E  E     E  E  E  E  E  E  E  E   
--------------------------|--------------------------|
--------------------------|--------------------------|
--------------------------|--------------------------|
--------5-----4-----------|-----2--------2-----------|
-----7-----7-----5-----5--|--3-----3--4-----4-----4--|
--0-----------------0-----|--------------------2-----|


  E  E  E  E  E  E  E  E     E  E  E  E  E  E  E  E   
--------------------------|--------------------------|
--------------------------|--------------------------|
--------------------------|--------------------------|
--------5-----4-----------|-----2--------2--------2--|
-----7-----7-----5-----5--|--3-----3--4-----4--5-----|
--0-----------------0-----|--------------------------|


  E  E  E  E  E  E  E  E     E  E  E  E  E  E  E  E     W                 
--------------------------|--------------------------|-------------------|
--------------------------|--------------------------|-------------------|
--------------------------|--------------------------|-------------------|
--------5-----4-----------|-----2--------2-----------|-------------------|
-----7-----7-----5-----5--|--3-----3--4-----4-----4--|--L----------------|
--0-----------------0-----|--------------------2-----|-------------------|


                                                S S S S E.  S S S E   
-------|-----------|-----------|-----------||------------------------|
-------|-----------|-----------|-----------||------------------------|
-------|-----------|-----------|-----------||*-----------------------|
-------|-----------|-----------|-----------||*-----------------------|
-------|-----------|-----------|-----------||------------------------|
-------|-----------|-----------|-----------||---1-0-0-0-----1-0-0-0--|


  S S S S E.  S S S E     S S S S E.  S S S E     S S S S E.  S S S E     
-----------------------|-----------------------|------------------------||
-----------------------|-----------------------|------------------------||
-----------------------|-----------------------|-----------------------*||
-----------------------|-----------------------|-----------------------*||
-----------------------|-----------------------|------------------------||
--1-0-0-0-----1-0-0-0--|--1-0-0-0-----1-0-0-0--|--1-0-0-0-----1-0-0-0---||


   E  E  E  E  Q.     E  E  E  E  E     E  E  E  E  Q.     E  E  E  E  E   
-------------------------------------|------------------------------------|
-------------------------------------|------------------------------------|
*------------------------------------|------------------------------------|
*------------------------------------|------------------------------------|
-------------------------------------|------------------------------------|
---1--0--0--0---------1--0--0--0-----|--1--0--0--0---------1--0--0--0-----|


  E  E  E  E  Q.     E  E  E  E  E     E  E  E  E  Q.     E  E  E  E  E     
------------------------------------|-------------------------------------||
------------------------------------|-------------------------------------||
------------------------------------|------------------------------------*||
------------------------------------|------------------------------------*||
------------------------------------|-------------------------------------||
--1--0--0--0---------1--0--0--0-----|--1--0--0--0---------1--0--0--0------||


   E  E  E  E  E  E  E  E  E  E  E  E     E  E  E  E  E  E  E  E  E  E  E  E   
---------------------------------------|--------------------------------------|
---------------------------------------|--------------------------------------|
*--------------------------------------|--------------------------------------|
*-----------------3--2-----------------|--------------------------------------|
------2--1-----------------5-----2--1--|-----2--1--------6--5-----------------|
---0--------0--1--------0-----0--------|--0--------0--5--------0--7--0--5--4--|


  E  E  E  E  E  E  E  E  E  E  E  E   
--------------------------------------|
--------------------------------------|
--------------------------------------|
-----------------3--2-----------------|
-----2--1-----------------5-----------|
--0--------0--1--------0-----0--7--6--|


   E   E   E  E  E  E  E  E  E  E  E  E     
------------------------------------------||
------------------------------------------||
-----------------------------------------*||
-----------------------------------------*||
------11--10--------9--8-----7-----6------||
--10----------9--8--------7-----6-----5---||


  E  E  E  E  E  E  E  E  E  E  E  E       E  E  E  E  Q.     E  E  E  E  E   
--------------------------------------||-------------------------------------|
--------------------------------------||-------------------------------------|
--2--1--------------------------------||*------------------------------------|
--------3--2--1--0--------------------||*------------------------------------|
--------------------2--1--2--1--------||-------------------------------------|
--------------------------------3--2--||---1--0--0--0---------1--0--0--0-----|


  E  E  E  E  Q.     E  E  E  E  E     E  E  E  E  Q.     E  E  E  E  E   
------------------------------------|------------------------------------|
------------------------------------|------------------------------------|
------------------------------------|------------------------------------|
------------------------------------|------------------------------------|
------------------------------------|------------------------------------|
--1--0--0--0---------1--0--0--0-----|--1--0--0--0---------1--0--0--0-----|


  E  E  E  E  Q    E  E  E  E  E  E       E  E  E  E  E  E  E  E  E  E  E  E   
--------------------------------------||--------------------------------------|
--------------------------------------||--------------------------------------|
-------------------------------------*||--------------------------------------|
-------------------------------------*||--------3--2--------------------------|
-------------------------5--4---------||-----1--------2--1--------5--4--------|
--1--0--0--0-------0--3--------3--2---||--0-----------------0--3--------3--2--|


    E  E  E  E  E  E  E  S S E  E  E  E   
|----------------------------------------|
|----------------------------------------|
|*---------------------------------------|
|*---------------------------------------|
|---7--5--8-----5------------------------|
|------------7-----6--0--0-0-0--0--0--0--|


  E  S S E  E  E  E  E  S S E  E  E  E   
----------------------------------------|
----------------------------------------|
----------------------------------------|
----------------------------------------|
--7--5-5-8-----5------------------------|
------------7-----6--0--0-0-0--0--0--0--|


  E  E  E  E  E  E  E  S S E  E  E  E   
---------------------------------------|
---------------------------------------|
---------------------------------------|
---------------------------------------|
--7--5--8-----5------------------------|
-----------7-----6--0--0-0-0--0--0--0--|


  E.  S S S E.  S S S E.   S  S S  E  E  E     
---------------------------------------------||
--------------------------------9-10--9--7---||
--------------------6-7---10-12-------------*||
------2-4-5-7---7-9-------------------------*||
---------------------------------------------||
--0------------------------------------------||


  E.  S S S E.  S S S E.   S  S S  E  E  E  E  E   E   
--------------------------------------------9--8------|
--------------------------------9-10--9--7--------10--|
--------------------6-7---10-12-----------------------|
------2-4-5-7---7-9-----------------------------------|
------------------------------------------------------|
--0---------------------------------------------------|


  E  E  E  E  E  E  E  E  E  E  E  E     E  E  E  E  E  E  E  E  E  E  E  E   
--------------------------------------|--------------------------------------|
--------------------------------------|--------------------------------------|
--------------------------------------|--------------------------------------|
-----4-----2--------------------------|-----4-----2--------------------------|
-----------------4-----3--------------|-----------------4-----3--------------|
--2-----2-----2-----2-----2--3--2--5--|--2-----2-----2-----2-----2--3--2--5--|


  E  E  E  E  E  E  E  E  E  E  E  E     E  E  E  E  E  E  E  E  E  E  E  E   
--------------------------------------|--------------------------------------|
--------------------------------------|--------------------------------------|
--------------------------------------|--------------------------------------|
-----4-----2--------------------------|-----4-----2--------------------------|
-----------------4-----3--------------|-----------------4-----3-----------1--|
--2-----2-----2-----2-----2--3--2--5--|--2-----2-----2-----2-----2--3--2-----|


  E  E  E  E  E  E  E  E  E  E  E  E     E  E  E  E  E  E  E  E  E  E  E  E   
--------------------------------------|--------------------------------------|
--------------------------------------|--------------------------------------|
--------------------------------------|--------------------------------------|
--------------------------------------|--------------------------------------|
--0--0--0--0--0--0--0--0--0--0--0--0--|--0--0--0--0--0--0--0--0--0-----------|
--------------------------------------|-----------------------------6--5--3--|


  E  E  E  E  E  E  E  E  E  E  E  E     E  E  E  E  E  E  E  E  E  E  E  E   
--------------------------------------|--------------------------------------|
--------------------------------------|--------------------------------------|
--------------------------------------|--------------------------------------|
-----4-----2--------------------------|-----4-----2--------------------------|
-----------------4-----3--------------|-----------------4-----3--------------|
--2-----2-----2-----2-----2--3--2--5--|--2-----2-----2-----2-----2--3--2--5--|


  E  E  E  E  E  E  E  E  E  E  E  E     E  E  E  E  E  E  E  E  E  E  E  E   
--------------------------------------|--------------------------------------|
--------------------------------------|--------------------------------------|
--------------------------------------|--------------------------------------|
-----4-----2--------------------------|-----4-----2--------------------------|
-----------------4-----3--------------|-----------------4-----3--------------|
--2-----2-----2-----2-----2--3--2--5--|--2-----2-----2-----2-----2--3--2--5--|


  E  E  E  E  E  E  E  E  E  E  E  E     Q    Q    Q    Q    Q    Q     
--------------------------------------|--------------------------------|
--------------------------------------|--------------------------------|
--------------------------------------|--------------------------------|
-----------------5--7--7--7--7--7--7--|--5----7----8----7----5----3----|
--0--0--0--0--0-----------------------|--------------------------------|
--------------------------------------|--------------------------------|


  E  E  E  E  E  E  E  E  E  E  E  E     E  E  E  E  E  E  E  E  E  E  E  E   
--------------------------------------|--------------------------------------|
--------------------------------------|--------------------------------------|
--------------------------------------|--------------------------------------|
-----4-----2--------------------------|-----4-----2--------------------------|
-----------------4-----3--------------|-----------------4-----3--------------|
--2-----2-----2-----2-----2--3--2--5--|--2-----2-----2-----2-----2--3--2--5--|


  E  E  E  E  E  E  E  E  E  E  E  E     E  E  E  E  E  E  E  E  E  E  E  E   
--------------------------------------|--------------------------------------|
--------------------------------------|--------------------------------------|
--------------------------------------|--------------------------------------|
-----4-----2--------------------------|-----4-----2--------------------------|
-----------------4-----3--------------|-----------------4-----3--------------|
--2-----2-----2-----2-----2--3--2--5--|--2-----2-----2-----2-----2--3--2--5--|


  Q    E  E  E  E  Q    E  E  E  E     Q    E  E  E  E  Q    E  E  E  E   
------------------------------------|------------------------------------|
------------------------------------|------------------------------------|
------------------------------------|------------------------------------|
------------------------------------|------------------------------------|
--0----0--0--0--0--0----0--0--0--0--|-------------------1----1--1--1-----|
------------------------------------|--3----3--3--3--3----------------0--|


    E  E  E  E  Q.     E  E  E  E  E     E  E  E  E  Q.     E  E  E  E  E   
|-------------------------------------|------------------------------------|
|-------------------------------------|------------------------------------|
|*------------------------------------|------------------------------------|
|*------------------------------------|------------------------------------|
|-------------------------------------|------------------------------------|
|---1--0--0--0---------1--0--1--0--0--|--1--0--0--0---------1--0--1--0--0--|


  E  E  E  E  E  E  E  Q    E  E  E     E  E  E  E  Q    E  E  E  E  E  E     
-------------------------------------|--------------------------------------||
-------------------------------------|--------------------------------------||
-------------------------------------|-------------------------------------*||
-------------------------------------|-------------------------------------*||
-------------------------------------|-------------------------5--4---------||
--1--0--0--1--0--0--0----------1--0--|--1--0--0--0-------0--3--------3--2---||


  E  E  E  E  E  E  E  E  E  E  E  E       E  E  E  E  Q.     E  E  E  E  E   
--------------------------------------||-------------------------------------|
--------------------------------------||-------------------------------------|
--------------------------------------||*------------------------------------|
--------3--2--------------------------||*------------------------------------|
-----1--------2--1--------5--4--------||-------------------------------------|
--0-----------------0--3--------3--2--||---1--0--0--0---------1--0--1--0--0--|


  E  E  E  E  Q.     E  E  E  E  E     E  E  E  E  E  E  E  Q    E  E  E   
------------------------------------|-------------------------------------|
------------------------------------|-------------------------------------|
------------------------------------|-------------------------------------|
------------------------------------|-------------------------------------|
------------------------------------|-------------------------------------|
--1--0--0--0---------1--0--1--0--0--|--1--0--0--1--0--0--0----------1--0--|


  E  E  E  E  Q    E  E  E  E  E  E       E  E  E  E  E  E  E  E  E  E  E  E   
--------------------------------------||--------------------------------------|
--------------------------------------||--------------------------------------|
-------------------------------------*||--------------------------------------|
-------------------------------------*||--------3--2--------------------------|
-------------------------5--4---------||-----1--------2--1--------5--4--------|
--1--0--0--0-------0--3--------3--2---||--0-----------------0--3--------3--2--|


    E  E  E  E  E  E  E  E  E  E  E  E     E  E  E  E  E  E  E  E  E  E  E  E   
|---------------------------------------|--------------------------------------|
|---------------------------------------|--------------------------------------|
|*--------------------------------------|--------------------------------------|
|*-----------------3--2-----------------|--------------------------------------|
|------2--1-----------------5-----2--1--|-----2--1--------6--5-----------------|
|---0--------0--1--------0-----0--------|--0--------0--5--------0--7--0--5--4--|


  E  E  E  E  E  E  E  E  E  E  E  E   
--------------------------------------|
--------------------------------------|
--------------------------------------|
-----------------3--2-----------------|
-----2--1-----------------5-----------|
--0--------0--1--------0-----0--7--6--|


   E   E   E  E  E  E  E  E  E  E  E  E     
------------------------------------------||
------------------------------------------||
-----------------------------------------*||
-----------------------------------------*||
------11--10--------9--8-----7-----6------||
--10----------9--8--------7-----6-----5---||


  E  E  E  E  E  E  E  E  E  E  E  E   
--------------------------------------|
--------------------------------------|
--2--1--------------------------------|
--------3--2--1--0--------------------|
--------------------2--1--2--1--------|
--------------------------------3--2--|


    E  E  E  E  Q.     E  E  E  E  E  E  E  E   
|----------------------------------------------|
|----------------------------------------------|
|*---------------------------------------------|
|*---------------------------------------------|
|----------------------------------------------|
|---1--0--0--0---------1--0--1--0--0--1--0--0--|


  E  E  E  E  Q.     E  E  E  E  E  E  E  E   
---------------------------------------------|
---------------------------------------------|
---------------------------------------------|
---------------------------------------------|
---------------------------------------------|
--1--0--0--0---------1--0--1--0--0--1--0--0--|


  E  E  E  E  Q.     E  E  E  E  E     E  E  E  E  Q    E  E  E  E  E  E     
------------------------------------|--------------------------------------||
------------------------------------|--------------------------------------||
------------------------------------|-------------------------------------*||
------------------------------------|-------------------------------------*||
------------------------------------|-------------------------5--4---------||
--1--0--0--0---------1--0--1--0--0--|--1--0--0--0-------0--3--------3--2---||


  E  E  E  E  E  E  E  E  E  E  E  E   
--------------------------------------|
--------------------------------------|
--------------------------------------|
--------3--2--------------------------|
-----1--------2--1--------5--4--------|
--0-----------------0--3--------3--2--|


    E  E  E  E  E  E  E  S S E  E  E  E   
|----------------------------------------|
|----------------------------------------|
|*---------------------------------------|
|*---------------------------------------|
|---7--5--8-----5------------------------|
|------------7-----6--0--0-0-0--0--0--0--|


  E  S S E  E  E  E  E  S S E  E  E  E   
----------------------------------------|
----------------------------------------|
----------------------------------------|
----------------------------------------|
--7--5-5-8-----5------------------------|
------------7-----6--0--0-0-0--0--0--0--|


  E  E  E  E  E  E  E  S S E  E  E  E   
---------------------------------------|
---------------------------------------|
---------------------------------------|
---------------------------------------|
--7--5--8-----5------------------------|
-----------7-----6--0--0-0-0--0--0--0--|


  E.  S S S E.  S S S E.   S  S S  E  E  E     
---------------------------------------------||
--------------------------------9-10--9--7---||
--------------------6-7---10-12-------------*||
------2-4-5-7---7-9-------------------------*||
---------------------------------------------||
--0------------------------------------------||


  E.  S S S E.  S S S E.   S  S S  E  E  E  E  E   E   
--------------------------------------------9--8------|
--------------------------------9-10--9--7--------10--|
--------------------6-7---10-12-----------------------|
------2-4-5-7---7-9-----------------------------------|
------------------------------------------------------|
--0---------------------------------------------------|


  E  E  E  E  E  E  E  E  E  E  E  E     E  E  E  E  E  E  E  E  E  E  E  E   
--------------------------------------|--------------------------------------|
--------------------------------------|--------------------------------------|
--------------------------------------|--------------------------------------|
-----4-----2--------------------------|-----4-----2--------------------------|
-----------------4-----3--------------|-----------------4-----3--------------|
--2-----2-----2-----2-----2--3--2--5--|--2-----2-----2-----2-----2--3--2--5--|


  E  E  E  E  E  E  E  E  E  E  E  E     E  E  E  E  E  E  E  E  E  E  E  E   
--------------------------------------|--------------------------------------|
--------------------------------------|--------------------------------------|
--------------------------------------|--------------------------------------|
-----4-----2--------------------------|-----4-----2--------------------------|
-----------------4-----3--------------|-----------------4-----3-----------1--|
--2-----2-----2-----2-----2--3--2--5--|--2-----2-----2-----2-----2--3--2-----|


  E  E  E  E  E  E  E  E  E  E  E  E     E  E  E  E  E  E  E  E  E  E  E  E   
--------------------------------------|--------------------------------------|
--------------------------------------|--------------------------------------|
--------------------------------------|--------------------------------------|
--------------------------------------|--------------------------------------|
--0--0--0--0--0--0--0--0--0--0--0--0--|--0--0--0--0--0--0--0--0--0-----------|
--------------------------------------|-----------------------------6--5--3--|


  E  E  E  E  E  E  E  E  E  E  E  E     E  E  E  E  E  E  E  E  E  E  E  E   
--------------------------------------|--------------------------------------|
--------------------------------------|--------------------------------------|
--------------------------------------|--------------------------------------|
--2-----4--2--------2-----4--2--------|--2-----4--2--------2-----4--2--------|
--------------4-----------------4-----|--------------4-----------------4-----|
-----2-----------2-----2-----------2--|-----2-----------2-----2-----------2--|


  E  E  E  E  E  E  E  E  E  E  E  E     E  E  E  E  E  E  E  E  E  E  E  E   
--------------------------------------|--------------------------------------|
--------------------------------------|--------------------------------------|
--------------------------------------|--------------------------------------|
--2-----4--2--------2-----4--2--------|--2-----4--2--------2-----4--2--------|
--------------4-----------------4-----|--------------4-----------------4-----|
-----2-----------2-----2-----------2--|-----2-----------2-----2-----------2--|


  E  E  E  E  E  E  E  E  E  E  E  E     E  E  E  E  E  E  E  E  E  E  E  E   
--------------------------------------|--------------------------------------|
--------------------------------------|--------------------------------------|
--------------------------------------|--------------------------------------|
--------------------------------------|--------------------------------------|
--0--0--0--0--0--0--0--0--0--0--0--0--|--0--0--0--0--0--0--0--0--0-----------|
--------------------------------------|-----------------------------6--5--3--|


  E  E  E  E  E  E  E  E  E  E  E  E     E  E  E  E  E  E  E  E  E  E  E  E   
--------------------------------------|--------------------------------------|
--------------------------------------|--------------------------------------|
--------------------------------------|--------------------------------------|
-----4-----2--------------------------|-----4-----2--------------------------|
-----------------4-----3--------------|-----------------4-----3--------------|
--2-----2-----2-----2-----2--3--2--5--|--2-----2-----2-----2-----2--3--2--5--|


  E  E  E  E  E  E  E  E  E  E  E  E     E  E  E  E  E  E  E  E  E  E  E  E   
--------------------------------------|--------------------------------------|
--------------------------------------|--------------------------------------|
--------------------------------------|--------------------------------------|
-----4-----2--------------------------|-----4-----2--------------------------|
-----------------4-----3--------------|-----------------4-----3--------------|
--2-----2-----2-----2-----2--3--2--5--|--2-----2-----2-----2-----2--3--2--5--|


  Q    E  E  E  E  Q    E  E  E  E     S S S S S S S S S S S S S S S S  
------------------------------------|----------------------------------|
------------------------------------|--9---7-9-7-----------------------|
------------------------------------|----9-------9-7-5-7---5-7-5-------|
------------------------------------|--------------------7-------7-5---|
--0----0--0--0--0--0----0--0--0--0--|--------------------------------7-|
------------------------------------|----------------------------------|


                                      T T  T T  T T T T  T T  T T  T T T T  
  S S S S S S S S S S S S S S S S     S S  S S  S S S S  S S  S S  S S S S  
----------------------------------|----------------------------------------|
----------------------------------|----------------------------------------|
----------------------------------|----------------------------------------|
--7---5-7-5-----------------7-5-7-|--10-7-12-7-10-7-5-7-10-7-12-7-10-7-5-7-|
----7-------7-5-3-5---3-5-3-------|----------------------------------------|
--------------------5-------------|----------------------------------------|


   T T  T T  T T T T  T T  T T  T                                           
   S S  S S  S S S S  S S  S S  S S S S    S S S S S S S S S S S S S S S S  
----------------------------------------|----------------------------------|
----------------------------------------|----------------------------------|
----------------------------------------|--5---7---5-------5---7---5-------|
--10-7-12-7-10-7-5-7-10-7-12-7-10-7-5-7-|----7---7---7-5-7---7---7---7-5-7-|
----------------------------------------|----------------------------------|
----------------------------------------|----------------------------------|


  S S S S S S S S S S S S S S S S    S S S S S S S S S S S S S S S S  
----------------------------------|----------------------------------|
----------------------------------|----------------------------------|
--5---7---5-------5-7-8-7-5-------|--5---7---5-------5---7---5-------|
----7---7---7-5-7-----------7-5-7-|----7---7---7-5-7---7---7---7-5-7-|
----------------------------------|----------------------------------|
----------------------------------|----------------------------------|


  S S S S S S S S S S S S S S S S    S S S S S S S S S S S S S S S S  
----------------------------------|----------------------------------|
----------------------------------|----------------------------------|
--5---7---5-------5-7-5-----------|--5---7---5-------5---7---5-------|
----7---7---7-5-7-------7-5---5-7-|----7---7---7-5-7---7---7---7-5-7-|
----------------------------7-----|----------------------------------|
----------------------------------|----------------------------------|


  S S S S S S S S S S S S S S S S    S S S S S S S S S S S S S S S S  
----------------------------------|----------------------------------|
----------------------------------|----------------------------------|
--5---7---5-------5-7-8-7-5-------|--5---7---5-------5---7---5-------|
----7---7---7-5-7-----------7-5-7-|----7---7---7-5-7---7---7---7-5-7-|
----------------------------------|----------------------------------|
----------------------------------|----------------------------------|


  S S S S S S S S S S E  E  S S    S S S S S S S S S S S S S S S S  
--------------------------------|----------------------------------|
--------------------------------|--7---9---7-------7---9---7-------|
--5---7---5-----------------7-9-|----9---9---9-7-9---9---9---9-7-9-|
----7---7---7-5-7---------------|----------------------------------|
------------------0-------------|----------------------------------|
--------------------------------|----------------------------------|


  S S S S S S S S S S  S S S S S S    S S S S S S S S S S S S S S S S  
-----------------------------------|----------------------------------|
--7---9---7-------7-9-10-9-7-------|--7---9---7-------7---9---7-------|
----9---9---9-7-9------------9-7-9-|----9---9---9-7-9---9---9---9-7-9-|
-----------------------------------|----------------------------------|
-----------------------------------|----------------------------------|
-----------------------------------|----------------------------------|


  S S S S S S S S S S S S S S S S    S S S S S S S S S S S S S S S S  
----------------------------------|----------------------------------|
--7---9---7-------7-9-7-----------|--7---9---7-------7---9---7-------|
----9---9---9-7-9-------9-7---7-9-|----9---9---9-7-9---9---9---9-7-9-|
----------------------------9-----|----------------------------------|
----------------------------------|----------------------------------|
----------------------------------|----------------------------------|


  S S S S S S S S S S  S S S S S S    S S S S S S S S S S S S S S S S  
-----------------------------------|----------------------------------|
--7---9---7-------7-9-10-9-7-------|--7---9---7-------7---9---7-------|
----9---9---9-7-9------------9-7-9-|----9---9---9-7-9---9---9---9-7-9-|
-----------------------------------|----------------------------------|
-----------------------------------|----------------------------------|
-----------------------------------|----------------------------------|


  S S S S S S S S S S S S S S S S    S S S S S S S S S S S S S S S S  
----------------------------------|----------------------------------|
--7---9---7-------7-9-7-----------|----------------------------------|
----9---9---9-7-9-------9-7---7-9-|--5---7---5-------5---7---5-------|
----------------------------9-----|----7---7---7-5-7---7---7---7-5-7-|
----------------------------------|----------------------------------|
----------------------------------|----------------------------------|


  S S S S S S S S S S S S S S S S    S S S S S S S S S S S S S S S S  
----------------------------------|----------------------------------|
----------------------------------|----------------------------------|
--5---7---5-------5-7-8-7-5-------|--5---7---5-------5---7---5-------|
----7---7---7-5-7-----------7-5-7-|----7---7---7-5-7---7---7---7-5-7-|
----------------------------------|----------------------------------|
----------------------------------|----------------------------------|


  S S S S S S S S S S S S S S S S    S S S S S S S S S S S S S S S S  
----------------------------------|----------------------------------|
----------------------------------|----------------------------------|
--5---7---5-------5-7-5-----------|--5---7---5-------5---7---5-------|
----7---7---7-5-7-------7-5---5-7-|----7---7---7-5-7---7---7---7-5-7-|
----------------------------7-----|----------------------------------|
----------------------------------|----------------------------------|


  S S S S S S S S S S S S S S S S    S S S S S S S S S S S S S S S S  
----------------------------------|----------------------------------|
----------------------------------|----------------------------------|
--5---7---5-------5-7-8-7-5-------|--5---7---5-------5---7---5-------|
----7---7---7-5-7-----------7-5-7-|----7---7---7-5-7---7---7---7-5-7-|
----------------------------------|----------------------------------|
----------------------------------|----------------------------------|


  S S S S S S S S S S S S S S S S    S S S S S S S S S S S S S S S S  
----------------------------------|----------------------------------|
----------------------------------|--7---9---7-------7---9---7-------|
--5---7---5-------5-7-5-------7-9-|----9---9---9-7-9---9---9---9-7-9-|
----7---7---7-5-7-------7-5-------|----------------------------------|
----------------------------7-----|----------------------------------|
----------------------------------|----------------------------------|


  S S S S S S S S S S  S S S S S S    S S S S S S S S S S S S S S S S  
-----------------------------------|----------------------------------|
--7---9---7-------7-9-10-9-7-------|--7---9---7-------7---9---7-------|
----9---9---9-7-9------------9-7-9-|----9---9---9-7-9---9---9---9-7-9-|
-----------------------------------|----------------------------------|
-----------------------------------|----------------------------------|
-----------------------------------|----------------------------------|


  S S S S S S S S S S S S S S S S    S S S S S S S S S S S S S S S S  
----------------------------------|----------------------------------|
--7---9---7-------7-9-7-----------|--7---9---7-------7---9---7-------|
----9---9---9-7-9-------9-7---7-9-|----9---9---9-7-9---9---9---9-7-9-|
----------------------------9-----|----------------------------------|
----------------------------------|----------------------------------|
----------------------------------|----------------------------------|


  S S S S S S S S S S  S S S S S S    S S S S S S S S S S S S S S S S  
-----------------------------------|----------------------------------|
--7---9---7-------7-9-10-9-7-------|--7---9---7-------7---9---7-------|
----9---9---9-7-9------------9-7-9-|----9---9---9-7-9---9---9---9-7-9-|
-----------------------------------|----------------------------------|
-----------------------------------|----------------------------------|
-----------------------------------|----------------------------------|


  S S S S S S S S S S S S S S S S    S S S S S S S S S S S S S S S S  
----------------------------------|----------------------------------|
--7---9---7-------7-9-7-----------|----------------------------------|
----9---9---9-7-9-------9-7-------|--7---9---7-------7---9---7-------|
----------------------------9-7-9-|----9---9---9-7-9---9---9---9-7-9-|
----------------------------------|----------------------------------|
----------------------------------|----------------------------------|


  S S S S S S S S S S  S S S S S S    S S S S S S S S S S S S S S S S  
-----------------------------------|----------------------------------|
-----------------------------------|----------------------------------|
--7---9---7-------7-9-10-9-7-------|--7---9---7-------7---9---7-------|
----9---9---9-7-9------------9-7-9-|----9---9---9-7-9---9---9---9-7-9-|
-----------------------------------|----------------------------------|
-----------------------------------|----------------------------------|


  S S S S S S S S S S S S S S S S    S S S S S S S S S S S S S S S S  
----------------------------------|----------------------------------|
----------------------------------|----------------------------------|
--7---9---7-------7-9-7-----------|--7---9---7-------7---9---7-------|
----9---9---9-7-9-------9-7---7-9-|----9---9---9-7-9---9---9---9-7-9-|
----------------------------9-----|----------------------------------|
----------------------------------|----------------------------------|


  S S S S S S S S S S  S S S S S S    S S S S S S S S S S S S S S S S  
-----------------------------------|----------------------------------|
-----------------------------------|----------------------------------|
--7---9---7-------7-9-10-9-7-------|--7---9---7-------7---9---7-------|
----9---9---9-7-9------------9-7-9-|----9---9---9-7-9---9---9---9-7-9-|
-----------------------------------|----------------------------------|
-----------------------------------|----------------------------------|


  S S S S S S S S S S S S S S S S    S S S S S S S S S S S S S S S S  
----------------------------------|----------------------------------|
----------------------------------|--7---9---7-------7---9---7-------|
--7---9---7-------7-9-7-----------|----9---9---9-7-9---9---9---9-7-9-|
----9---9---9-7-9-------9-7---7-9-|----------------------------------|
----------------------------9-----|----------------------------------|
----------------------------------|----------------------------------|


  S S S S S S S S S S  S S S S S S    S S S S S S S S S S S S S S S S  
-----------------------------------|----------------------------------|
--7---9---7-------7-9-10-9-7-------|--7---9---7-------7---9---7-------|
----9---9---9-7-9------------9-7-9-|----9---9---9-7-9---9---9---9-7-9-|
-----------------------------------|----------------------------------|
-----------------------------------|----------------------------------|
-----------------------------------|----------------------------------|


  S S S S S S S S S S S S S S S S    S S S S S S S S S S S S S S S S  
----------------------------------|----------------------------------|
--7---9---7-------7-9-7-----------|--7---9---7-------7---9---7-------|
----9---9---9-7-9-------9-7---7-9-|----9---9---9-7-9---9---9---9-7-9-|
----------------------------9-----|----------------------------------|
----------------------------------|----------------------------------|
----------------------------------|----------------------------------|


  S S S S S S S S S S  S S S S S S    S S S S S S S S S S S S S S S S  
-----------------------------------|----------------------------------|
--7---9---7-------7-9-10-9-7-------|--7---9---7-------7---9---7-------|
----9---9---9-7-9------------9-7-9-|----9---9---9-7-9---9---9---9-7-9-|
-----------------------------------|----------------------------------|
-----------------------------------|----------------------------------|
-----------------------------------|----------------------------------|


  S S S S S S S S S S S S S S S S    S S S S S S  S S S E.   S S S S  
----------------------------------|----------------------------------|
--7---9---7-------7-9-7-----------|----9-----7-9~-----7-9~-----9-----|
----9---9---9-7-9-------9-7---7-8-|------7-9------7-9------------7-9-|
----------------------------9-----|--7-----------------------7-------|
----------------------------------|----------------------------------|
----------------------------------|----------------------------------|


  S S S S S S S  S    S S S S S S  S S S E.   S S S S    S S S S S S S  S  
-------------------|----------------------------------|-------------------|
--7-9-----7--------|----9-----7-9~-----7-9~-----9-----|--7-9-----7--------|
------7-9---9-7----|------7-9------7-9------------7-9-|------7-9---9-7----|
----------------10-|--7-----------------------7-------|----------------10-|
-------------------|----------------------------------|-------------------|
-------------------|----------------------------------|-------------------|


  S S S S S S  S S S E.   S S S S    S S E  E  S S E  S S E  E  S S E  E  E   
----------------------------------|------------------------------------------|
----9-----7-9~-----7-9~-----9-----|------------------------------------------|
------7-9------7-9------------7-9-|------------------------------------------|
--7-----------------------7-------|------------------------------------------|
----------------------------------|--8-7-------7-6--------------8-7----------|
----------------------------------|------0--0------0--7-6-0--0------0--0--0--|


  S S E  E  S S E  S S E  E  S S E  E  S S  
-------------------------------------------|
-------------------------------------------|
-------------------------------------------|
-------------------------------------------|
--8-7-------7-6--------------8-7-----------|
------0--0------0--7-6-0--0------0--0--5-6-|


  S S E  E  S S E  S S E  E  S S E  E  E   
------------------------------------------|
------------------------------------------|
------------------------------------------|
------------------------------------------|
--8-7-------7-6--------------8-7----------|
------0--0------0--7-6-0--0------0--0--0--|


  S S E  E  S S E  S S E  E  S S S S S S S S  
---------------------------------------------|
---------------------------------------------|
---------------------------------------------|
---------------------------------------------|
--8-7-------7-6------------------5-8-7-5-----|
------0--0------0--7-6-0--0--5-7---------8-5-|


  S S S S S S S S S S S S S S S S S S S S S S S S    S S S S S S S S  
--------------------------------------------------|------------------|
----9-----7-9-----7---------9-----7-9-----7-------|----9-----7-9-----|
------7-9-----7-9---9-7-------7-9-----7-9---9-7---|------7-9-----7-9-|
--7---------------------9-7---------------------9-|--7---------------|
--------------------------------------------------|------------------|
--------------------------------------------------|------------------|


  S S S S S S S S S E  S E  S S    S S S S S S S S S E  S E  S S  
--------------------------------|--------------------------------|
--------------------------------|--------------------------------|
--------------------------------|--------------------------------|
--------------------------------|--------------------------------|
--------------------------------|--------------------------------|
--3-2-0-5-3-0-3-2-0-0--0-0--0-0-|--3-2-0-5-3-0-3-2-0-0--0-0--0-0-|


  S S S S S S S S S E  S E  S S    S S S S S S S S S S S S S S E   
--------------------------------|---------------------------------|
--------------------------------|---------------------------------|
--------------------------------|---------------------------------|
--------------------------------|---------------------------------|
--------------------------------|---------------------------------|
--3-2-0-5-3-0-3-2-0-0--0-0--0-0-|--3-2-0-5-3-0-6-3-0-3-2-0-3-0-0--|


    S S S S S S S S S S E  S S S S    S S S S S S S S S S E  S S S S  4x
|----------------------------------|----------------------------------||
|----------------------------------|----------------------------------||
|*---------------------------------|---------------------------------*||
|*---------------------------------|---------------------------------*||
|---2-1--------------------------1-|--2-1--------------------------1--||
|-------3-2-L-0-L-2-L-0-L----0-2---|------3-2-L-0-L-2-L-3-2--L-0-2----||


  S S S S S S S S S S E  S S S S      S S S S S S S S S S S S S S S S  
---------------------------------||-----------------------------------|
---------------------------------||-----------------------------------|
---------------------------------||*----------------------------------|
-------------------------------2-||*--2-4-4-2-4-4-2-4-4-2-4-2-4-5-4-2-|
--2-1----------------------4-5---||-----------------------------------|
------3-2-L-0-L-2-L-3-2--L-------||-----------------------------------|


  S S S S S S S S S S S S S S E        S S S S S S S S S S S S S S S S  
----------------------------------||-----------------------------------|
----------------------------------||-----------------------------------|
---------------------------------*||*----------------------------------|
--2-4-4-2-4-4-2-4-4-2-4-2--------*||*--------------------------------2-|
--------------------------4-2-1---||---2-1---------------------1-2-4---|
----------------------------------||-------3-2-L-0-L-2-L-0-2-4---------|


  S S S S S S S S S S S S S S E       S S S S S S S S S E  S E  S S  
----------------------------------||--------------------------------|
----------------------------------||--------------------------------|
---------------------------------*||--------------------------------|
--2-4-4-2-4-4-2-4-4-5-4-2--------*||--------------------------------|
--------------------------4-2-1---||--------------------------------|
----------------------------------||--3-2-0-5-3-0-3-2-0-0--0-0--0-0-|


  S S S S S S S S S E  S E  S S    S S S S S S S S S E  S E  S S  
--------------------------------|--------------------------------|
--------------------------------|--------------------------------|
--------------------------------|--------------------------------|
--------------------------------|--------------------------------|
--------------------------------|--------------------------------|
--3-2-0-5-3-0-3-2-0-0--0-0--0-0-|--3-2-0-5-3-0-3-2-0-0--0-0--0-0-|


  S S S S S S S S S S S S S S E       S S S S S S S S S S S S S S S S  
---------------------------------||-----------------------------------|
---------------------------------||-----------------------------------|
---------------------------------||*----------------------------------|
---------------------------------||*--------------------------------2-|
---------------------------------||---2-1---------------------1-2-4---|
--3-2-0-5-3-0-6-3-0-3-2-0-3-0-0--||-------3-2-L-0-L-2-L-0-2-4---------|


  S S S S S S S S S S S S S S E       S S S S S S S S S S S S S S E   
----------------------------------||---------------------------------|
----------------------------------||---------------------------------|
---------------------------------*||---------------------------------|
--2-4-4-2-4-4-2-4-4-5-4-2--------*||--7-6----------------------------|
--------------------------4-2-1---||------8-7-L---6-5----------------|
----------------------------------||------------0-----7-6---0-0-0-0--|


  S S S S S S S S S S S S S S E     S S S S S S S S S S S S S S E   
---------------------------------|---------------------------------|
---------------------------------|---------------------------------|
---------------------------------|---------------------------------|
--7-6----------------------------|--7-6----------------------------|
------8-7-L---6-5----------------|------8-7-L---6-5----------------|
------------0-----7-6---0-0-0-0--|------------0-----7-6---0-0-0-0--|


  S S S S S S S S S S S S S S S S S S S S    S S S S S S S S S S S S S S S S  
------------------------------------------|----------------------------------|
------------------------------------------|----------------------------------|
------------------------------------------|----------------------------------|
--7-6-----------------------------------2-|--2-4-4-2-4-4-2-4-4-2-4-2-4-5-4-2-|
------8-7-L---6-5---------------0-2-4-5---|----------------------------------|
------------0-----7-6---0-0-0-0-----------|----------------------------------|


  S S S S S S S S S S S S S S E     S S S S S S S S S E  S E  S S  
---------------------------------|--------------------------------|
---------------------------------|--------------------------------|
---------------------------------|--------------------------------|
--2-4-4-2-4-4-2-4-4-5-4-2--------|--------------------------------|
--------------------------4-2-1--|--------------------------------|
---------------------------------|--3-2-0-5-3-0-3-2-0-0--0-0--0-0-|


  S S S S S S S S S E  S E  S S    S S S S S S S S S S S S S S S S  
--------------------------------|----------------------------------|
--------------------------------|----------------------------------|
--------------------------------|----------------------------------|
--------------------------------|--2-4-4-2-4-4-2-4-4-2-4-2-4-5-4-2-|
--------------------------------|----------------------------------|
--3-2-0-5-3-0-3-2-0-0--0-0--0-0-|----------------------------------|


  S S S S S S S S S S S S S S E     S S S S S S S S S E  S E  S S  
---------------------------------|--------------------------------|
---------------------------------|--------------------------------|
---------------------------------|--------------------------------|
--2-4-4-2-4-4-2-4-4-5-4-2--------|--------------------------------|
--------------------------4-2-1--|--------------------------------|
---------------------------------|--3-2-0-5-3-0-3-2-0-0--0-0--0-0-|


  S S S S S S S S S S S S S S E     S S S S S S S S S S S S S S S S  
---------------------------------|----------------------------------|
---------------------------------|----------------------------------|
---------------------------------|----------------------------------|
---------------------------------|--2-4-4-2-4-4-2-4-4-2-4-2-4-5-4-2-|
---------------------------------|----------------------------------|
--3-2-0-5-3-0-6-3-0-3-2-0-3-0-0--|----------------------------------|


  S S S S S S S S S S S S S S E     S  S  S S  S  S S  S  S S  S S  S  S  S S  
---------------------------------|--------------------------------------------|
---------------------------------|--------------------------------------------|
---------------------------------|--9-11-11-9-11-11-9-11-11-9-11-9-11-12-11-9-|
--2-4-4-2-4-4-2-4-4-5-4-2--------|--------------------------------------------|
--------------------------4-2-1--|--------------------------------------------|
---------------------------------|--------------------------------------------|


                   H        Q.     E     Q.     Q.     S  S  E   
----|----|----||----------------------|-------------------------|
----|----|----||----------------------|-------------------------|
----|----|----||*---------------------|-------------------------|
----|----|----||*--2--------0---------|----------------5h-7p-5--|
----|----|----||-------------------3--|--L------4---------------|
----|----|----||----------------------|-------------------------|


  H        Q.     E     Q    E  E  E  E  Q    16x
---------------------|-------------------------||
---------------------|-------------------------||
---------------------|------------------------*||
--2--------0---------|------------------------*||
------------------3--|--L----4--------4--------||
---------------------|----------3--L-----2-----||




Duration Legend
---------------
W - whole
H - half
Q - quarter
E - 8th
S - 16th
T - 32nd
X - 64th
. - note dotted
|-n-|  - n-tuplets


Tablature Legend
----------------
L - tied note
x - dead note
g - grace note
(n) - ghost note
> - accentuded note
NH - natural harmonic
AH - artificial harmonic
TH - tapped harmonic
SH - semi harmonic
PH - pitch harmonic
h - hammer on
p - pull off
b - bend
br - bendRelease
pb - preBend
pbr - preBendRelease
brb - bendReleaseBend
\n/ - tremolo bar dip
\n - tremolo bar dive
-/n - tremolo bar Release up
/n\ - tremolo bar inverted dip
/n - tremolo bar return
-\n - tremolo bar Release down
S - shift slide
s - legato slide
/ -  slide into from below or out of upwards
\ -  slide into from above or out of downwards
~ - vibrato
W - wide vibrato
tr - trill
TP - tremolo picking
T - tapping
S - slap
P - pop
< - fade in
^ - brush up
v - brush down

            
            
Suggest correction
Creating personal tab
Creating personal tab
You can edit any tab online and save it as your Personal.

You can edit, replace or remove any tab part or add personal notes – all changes will be seen only by you.

Personal tabs can be accessed anytime from any device, even offline.
Learn more »
Give kudos to tab author, rate the tab!
1 2 3 4 5
comments
print report bad tab
guest
You may want to rate the tab now too:
select rating
Wanna post a correction for this tab? Suggest correction