Oops, an error
Loading. Please wait.

The Glass Prison intro tab

version 1
version 1
2,352 views 3 this week
7 commentsread comments
1 2 3 4 5
x 11
add to favorites
×
Save as Personal and add changes to this tab that will be seen only by you. Learn more ›
×
You can save this tab as Personal to edit and correct it or add notes. All changes will be seen only by you. Learn more »
launch autoscroll
font size
0
reset
how to read this tab
guitar tuner
edit
Autoscroll
slow
fast
+/-
esc
set tempo
stop
Author
Band- Dream Theter
Song- The Glass prison
Transcribed by Jason Clary

I only have the intro down so far. so here it is


|---------------------------------------|
|--0---3-0-2-0----0----0-------0------0-|
|--------------------0---0--1----1--2---|
|---------------------------------------|
|---------------------------------------|
|---------------------------------------|

|---------------------------------------|
|--0---3-0-2-0----0---0-------0----0----|
|-------------------0---0--1----1-------|
|---------------------------------------|
|---------------------------------------|
|---------------------------------------|

            
            
Suggest correction
Creating personal tab
Creating personal tab
You can edit any tab online and save it as your Personal.

You can edit, replace or remove any tab part or add personal notes – all changes will be seen only by you.

Personal tabs can be accessed anytime from any device, even offline.
Learn more »
comments
print report bad tab
7 comments total. Showing first comments.
0 reply
Saggy 10 Feb 13, 2004 07:00 PM

sorry mate but u got it wrong. Here is how its supposed to be:

|-----------------------------------------|
|-----------------------------------------|
|--------7----6---------4------4----------|
|--9---9---9----7--7--5---5--6---6--7-7/9-|
|-----------------------------------------|
|-----------------------------------------|

|-------------------------------------|
|-------------------------------------|
|----7----6---------4------4----------|
|--9---9----7--7--5---5--6---6--7-7/9-| x?
|-------------------------------------|
|-------------------------------------|

0 reply
slash_pwns 290 Aug 23, 2005 08:00 PM

You both have it wrong lol.

It's played on bass.

0 reply
Metal_Militia2 267 Oct 22, 2006 07:21 PM

How hard is it to tab out 10 measures of a song?

guest
You may want to rate the tab now too:
select rating
Wanna post a correction for this tab? Suggest correction