Oops, an error
Loading. Please wait.

These Walls Bass Tab

version 2
version 2

Whole song

  • Tuned to A-E-A-D-G-C, and formatted clearly with timestamps.
28 views 1 this week
no commentswrite comment
1 2 3 4 5
2 more votes to show rating
add to favorites
launch autoscroll
font size
0
reset
guitar tuner
Autoscroll
slow
fast
+/-
esc
set tempo
stop
Help us to improve Ultimate-Guitar.com Take our survey!
×
Author
Difficulty
intermediate
About this tab version
Tuned to A-E-A-D-G-C, and formatted clearly with timestamps. Was this info helpful? Yes No
                                   These Walls                                   
                           Dream Theater - Octavarium

This song is pretty simple as far as Dream Theater songs go! A lot of other tabs
have every string tuned a whole step down, but that's not necessary for bass - you just need to drop 
your B string down a tone to an A.



(0.32) Intro

 6/8                                                              
     E.  E  S E  E  E    E.  E  S E  E  E    E.  E  S E  E  E    E.  E  S E   E   E 
C||--------------------|-------------------|-------------------|----------------------|
G||--------------------|-------------------|-------------------|----------------------|
D||--------------------|-------------------|-------------------|----------------------|
A||--------------------|-------------------|-------------------|----------------------|
E||--------------------|-------------------|-------------------|----------------------|
A||--0---0--0-0--0--0--|-3---3--3-3--3--3--|-8---8--8-8--8--8--|-8---8--8-10--10--10--|



    E.  E  S E  E  E    E.  E  S E  E  E    E.  E  S E  E  E    E.  E  S  E  E  E 
C|--------------------|-------------------|-------------------|----------------------|
G|--------------------|-------------------|-------------------|----------------------|
D|--------------------|-------------------|-------------------|----------------------|
A|--------------------|-------------------|-------------------|----------------------|
E|--------------------|-------------------|-------------------|----------------------|
A|--0---0--0-0--0--0--|-3---3--3-3--3--3--|-5---5--5-5--5--5--|-5---5--5--7--7--7----|



                                                               
    E.  E  S E  E  E    E.  E  S E  E  E    E.  E  S E  E  E    E.  E  S E   E   E 
C|--------------------|-------------------|-------------------|----------------------|
G|--------------------|-------------------|-------------------|----------------------|
D|--------------------|-------------------|-------------------|----------------------|
A|--------------------|-------------------|-------------------|----------------------|
E|--------------------|-------------------|-------------------|----------------------|
A|--0---0--0-0--0--0--|-3---3--3-3--3--3--|-8---8--8-8--8--8--|-8---8--8-10--10--10--|




    E.  E  S E  E  E    E.  E  S E  E  E    E.  E  S E  E  E    E.  E  S  S  S   
C|--------------------|-------------------|-------------------|----------------------||
G|--------------------|-------------------|-------------------|----------------------||
D|--------------------|-------------------|-------------------|----------------------||
A|--------------------|-------------------|-------------------|----------------------||
E|--------------------|-------------------|-------------------|----------------------||
A|--5---5--5-5--5--5--|-5---5--5-5--5--5--|-8---8--8-8--8--8--|-8---8--8--10-10\-----||




(1.03) Pre-Verse


6/8                        5/8     6/8                      5/8
C|--------|--------|--------|------|--------|--------|--------|------|
G|--------|--------|--------|------|--------|--------|--------|------|
D|--------|--------|--------|------|--------|--------|--------|------|
A|--------|--------|--------|------|--------|--------|--------|------|
E|--------|--------|--------|------|--------|--------|--------|------|
A|--------|--------|--------|------|--------|--------|--------|------|




(1.18) Verse


 6/8                                                                 5/8
      E.  E  S E  E  S S    E.  E  S E  E  S S    E.  E  S E  E  S S    E.  E  S E  E 
C||----------------------|---------------------|---------------------|-----------------|
G||----------------------|---------------------|---------------------|-----------------|
D||------------7-----5-7-|-----------7-----5-7-|-----------7-----5-7-|------7----------|
A||---0---0--0----0------|--0---0--0----0------|--0---0--0----0------|--0------0-3--5--|
E||----------------------|---------------------|---------------------|-----------------|
A||----------------------|---------------------|---------------------|-----------------|


 6/8                                                                5/8
     E.  E  S E  E  S S    E.  E  S Q.           E.  E  S E  E  E      E.  E  S E  E 
C|----------------------|---------------------|---------------------|-----------------|
G|----------------------|---------------------|---------------------|-----------------|
D|------------7-----5-7-|-----------7\--------|--------------3------|-----------------|
A|---0---0--0----0------|--0---0--7-----------|-----------3-----3---|-----------------|
E|----------------------|---------------------|--1---1--1-----------|--1---1--1-3--3--|
A|----------------------|---------------------|---------------------|-----------------|



 6/8                                                                5/8
     E.  E  S E  E  S S    E.  E  S E  E  S S    E.  E  S E  E  S S    E.  E  S E  E 
C|----------------------|---------------------|---------------------|-----------------|
G|----------------------|---------------------|---------------------|-----------------|
D|------------7-----5-7-|-----------7-----5-7-|-----------7-----5-7-|------7----------|
A|---0---0--0----0------|--0---0--0----0------|--0---0--0----0------|--0------0-3--5--|
E|----------------------|---------------------|---------------------|-----------------|
A|----------------------|---------------------|---------------------|-----------------|


 6/8                                                                 
     E.  E  S E  E  S S    E.  E  S Q.           E.  E  S E  E  E     E.  E  S E  S S S S 
C|----------------------|---------------------|---------------------|---------------------||
G|----------------------|---------------------|---------------------|---------------------||
D|------------7-----5-7-|-----------7\--------|--------------3------|---------------------||
A|---0---0--0----0------|--0---0--7-----------|-----------3-----3---|---------------------||
E|----------------------|---------------------|--1---1--1-----------|-1---1--1-3--3-3-3-3-||
A|----------------------|---------------------|---------------------|---------------------||




(1.49) Pre-Chorus 1
 

6/8
   S S S S S S S S S S S S  S S S S S S S S S S S S  S S S S S S S S S S S S  S S S S S S S S S S S S  
C|------------------------|------------------------|-------------------------|------------------------|
G|------------------------|------------------------|-------------------------|------------------------|
D|------------------------|------------------------|-------------------------|------------------------|
A|------------------------|------------------------|-------------------------|------------------------|
E|-1-1-1-1-1-1-1-1-1-1-1-1|-3-3-3-3-3-3-3-3-3-3-3-3|-5-5-5-5-5-5-5-5-5-5-5-5-|-5-5-5-5-5-5-5-5-5-5-5-5|
A|------------------------|------------------------|-------------------------|------------------------|



   S S S S S S S S S S S S  S S S S S S S S S S S S  S S S S S S S S S S S S  S S S S S S E 
C|------------------------|------------------------|------------------------|------------------------||
G|------------------------|------------------------|------------------------|------------------------||
D|------------------------|------------------------|------------------------|------------------------||
A|------------------------|------------------------|------------------------|------------------------||
E|-1-1-1-1-1-1-1-1-1-1-1-1|-3-3-3-3-3-3-3-3-3-3-3-3|------------------------|------------------------||
A|------------------------|------------------------|-5-5-5-5-5-5-5-5-5-5-5-5|-5-5-5-5-5-5-5----------||





(2.04) Chorus 1


6/8                                                              
     E.  E  S E  E  E    E.  E  S E  E  E    E.  E  S E  E  E    E.  E  S E   E   E 
C||--------------------|-------------------|-------------------|----------------------|
G||--------------------|-------------------|-------------------|----------------------|
D||--------------------|-------------------|-------------------|----------------------|
A||--------------------|-------------------|-------------------|----------------------|
E||--------------------|-------------------|-------------------|----------------------|
A||--0---0--0-0--0--0--|-3---3--3-3--3--3--|-8---8--8-8--8--8--|-8---8--8-10--10--10--|



    E.  E  S E  E  E    E.  E  S E  E  E    E.  E  S E  E  E    E.  E  S  E  E  E 
C|--------------------|-------------------|-------------------|----------------------|
G|--------------------|-------------------|-------------------|----------------------|
D|--------------------|-------------------|-------------------|----------------------|
A|--------------------|-------------------|-------------------|----------------------|
E|--------------------|-------------------|-------------------|----------------------|
A|--0---0--0-0--0--0--|-3---3--3-3--3--3--|-5---5--5-5--5--5--|-5---5--5--7--7--7----|



                                                               
    E.  E  S E  E  E    E.  E  S E  E  E    E.  E  S E  E  E    E.  E  S E   E   E 
C|--------------------|-------------------|-------------------|----------------------|
G|--------------------|-------------------|-------------------|----------------------|
D|--------------------|-------------------|-------------------|----------------------|
A|--------------------|-------------------|-------------------|----------------------|
E|--------------------|-------------------|-------------------|----------------------|
A|--0---0--0-0--0--0--|-3---3--3-3--3--3--|-8---8--8-8--8--8--|-8---8--8-10--10--10--|




    E.  E  S E  E  E    E.  E  S E  E  E    E.  E  S E  E  E    E.  E  S  S  S   
C|--------------------|-------------------|-------------------|----------------------||
G|--------------------|-------------------|-------------------|----------------------||
D|--------------------|-------------------|-------------------|----------------------||
A|--------------------|-------------------|-------------------|----------------------||
E|--------------------|-------------------|-------------------|----------------------||
A|--5---5--5-5--5--5--|-5---5--5-5--5--5--|-8---8--8-8--8--8--|-8---8--8--10-10\-----||




(2.46) Pre-Verse 2

 6/8                                                                 5/8
      E.  E  S E  E  S S    E.  E  S E  E  S S    E.  E  S E  E  S S    E.  E  S E  E 
C||----------------------|---------------------|---------------------|-----------------|
G||----------------------|---------------------|---------------------|-----------------|
D||------------7-----5-7-|-----------7-----5-7-|-----------7-----5-7-|-----------------|
A||---0---0--0----0------|--0---0--0----0------|--0---0--0----0------|--0---0--0-3--5--|
E||----------------------|---------------------|---------------------|-----------------|
A||----------------------|---------------------|---------------------|-----------------|


 6/8                                                                5/8
     E.  E  S E  E  S S    E.  E  S Q.           E.  E  S E  E  E      E.  E  S E  E 
C|----------------------|---------------------|---------------------|-----------------||
G|----------------------|---------------------|---------------------|-----------------||
D|------------7-----5-7-|-----------7\--------|--------------3------|-----------------||
A|---0---0--0----0------|--0---0--7-----------|-----------------3---|-----------------||
E|----------------------|---------------------|--1---1--1-1---------|--1---1--1-3--3--||
A|----------------------|---------------------|---------------------|-----------------||





(2.51) Verse 2


      E.  E  S E  E  S S    E.  E  S E  E  S S    E.  E  S E  E  S S    E.  E  S E  E 
C||----------------------|---------------------|---------------------|-----------------|
G||----------------------|---------------------|---------------------|-----------------|
D||------------7-----5-7-|-----------7-----5-7-|-----------7-----5-7-|-----------------|
A||---0---0--0----0------|--0---0--0----0------|--0---0--0----0------|--0---0--0-3--5--|
E||----------------------|---------------------|---------------------|-----------------|
A||----------------------|---------------------|---------------------|-----------------|


 6/8                                                                5/8
     E.  E  S E  E  S S    E.  E  S Q.           E.  E  S E  E  E      E.  E  S E  E 
C|----------------------|---------------------|---------------------|-----------------|
G|----------------------|---------------------|---------------------|-----------------|
D|------------7-----5-7-|-----------7\--------|--------------3------|------3-------5--|
A|---0---0--0----0------|--0---0--7-----------|-----------3-----3---|-----------------|
E|----------------------|---------------------|--1---1--1-----------|--1------1-3-----|
A|----------------------|---------------------|---------------------|-----------------|



 6/8                                                                5/8
     E.  E  S E  E  S S    E.  E  S E  E  S S    E.  E  S E  E  S S    E.  E  S E  E 
C|----------------------|---------------------|---------------------|-----------------|
G|----------------------|---------------------|---------------------|-----------------|
D|------------7-----5-7-|-----------7-----5-7-|-----------7-----5-7-|-----------------|
A|---0---0--0----0------|--0---0--0----0------|--0---0--0----0------|--0---0--0-3--5--|
E|----------------------|---------------------|---------------------|-----------------|
A|----------------------|---------------------|---------------------|-----------------|


 6/8                                                                 
     E.  E  S E  E  S S    E.  E  S Q.           E.  E  S E  E  E     E.  E  S E  S S S S 
C|----------------------|---------------------|---------------------|---------------------||
G|----------------------|---------------------|---------------------|---------------------||
D|------------7-----5-7-|-----------7\--------|--------------3------|---------------------||
A|---0---0--0----0------|--0---0--7-----------|-----------3-----3---|---------------------||
E|----------------------|---------------------|--1---1--1-----------|-1---1--1-3--3-3-3-3-||
A|----------------------|---------------------|---------------------|---------------------||




(3.22) Pre-Chorus 2

6/8
   S S S S S S S S S S S S  S S S S S S S S S S S S  S S S S S S S S S S S S  S S S S S S S S S S S S  
C|------------------------|------------------------|-------------------------|------------------------|
G|------------------------|------------------------|-------------------------|------------------------|
D|------------------------|------------------------|-------------------------|------------------------|
A|------------------------|------------------------|-------------------------|------------------------|
E|-1-1-1-1-1-1-1-1-1-1-1-1|-3-3-3-3-3-3-3-3-3-3-3-3|-5-5-5-5-5-5-5-5-5-5-5-5-|-5-5-5-5-5-5-5-5-5-5-5-5|
A|------------------------|------------------------|-------------------------|------------------------|



   S S S S S S S S S S S S  S S S S S S S S S S S S  S S S S S S S S S S S S  S S S S S S E 
C|------------------------|------------------------|------------------------|------------------------||
G|------------------------|------------------------|------------------------|------------------------||
D|------------------------|------------------------|------------------------|------------------------||
A|------------------------|------------------------|------------------------|------------------------||
E|-1-1-1-1-1-1-1-1-1-1-1-1|-3-3-3-3-3-3-3-3-3-3-3-3|------------------------|------------------------||
A|------------------------|------------------------|-5-5-5-5-5-5-5-5-5-5-5-5|-5-5-5-5-5-5-5----------||





(3.37) Chorus 2


6/8                                                              
     E.  E  S E  E  E    E.  E  S E  E  E    E.  E  S E  E  E    E.  E  S E   E   E 
C||--------------------|-------------------|-------------------|----------------------|
G||--------------------|-------------------|-------------------|----------------------|
D||--------------------|-------------------|-------------------|----------------------|
A||--------------------|-------------------|-------------------|----------------------|
E||--------------------|-------------------|-------------------|----------------------|
A||--0---0--0-0--0--0--|-3---3--3-3--3--3--|-8---8--8-8--8--8--|-8---8--8-10--10--10--|



    E.  E  S E  E  E    E.  E  S E  E  E    E.  E  S E  E  E    E.  E  S  E  E  E 
C|--------------------|-------------------|-------------------|----------------------|
G|--------------------|-------------------|-------------------|----------------------|
D|--------------------|-------------------|-------------------|----------------------|
A|--------------------|-------------------|-------------------|----------------------|
E|--------------------|-------------------|-------------------|----------------------|
A|--0---0--0-0--0--0--|-3---3--3-3--3--3--|-5---5--5-5--5--5--|-5---5--5--7--7--7----|



                                                               
    E.  E  S E  E  E    E.  E  S E  E  E    E.  E  S E  E  E    E.  E  S E   E   E 
C|--------------------|-------------------|-------------------|----------------------|
G|--------------------|-------------------|-------------------|----------------------|
D|--------------------|-------------------|-------------------|----------------------|
A|--------------------|-------------------|-------------------|----------------------|
E|--------------------|-------------------|-------------------|----------------------|
A|--0---0--0-0--0--0--|-3---3--3-3--3--3--|-8---8--8-8--8--8--|-8---8--8-10--10--10--|




    E.  E  S E  E  E    E.  E  S E  E  E    E.  E  S E  E  E    E.  E  S  E   E   E 
C|--------------------|-------------------|-------------------|----------------------||
G|--------------------|-------------------|-------------------|----------------------||
D|--------------------|-------------------|-------------------|----------------------||
A|--------------------|-------------------|-------------------|----------------------||
E|--------------------|-------------------|-------------------|----------------------||
A|--5---5--5-5--5--5--|-5---5--5-5--5--5--|-8---8--8-8--8--8--|-8---8--8--10--10--10-||





(4.09) Bridge


5/8                                 6/8                        5/8

    E.  E  S E  E     E.  E  S E  E     S E  E  S S E   S S  S    S E  E  S  E  E 
C|-----------------|-----------------|-------------------------|-------------------|
G|-----------------|-----------------|-------------------------|-------------------|
D|-----------------|-----------------|-------------------------|-------------------|
A|-----------------|-----------------|-------------------------|-------------------|
E|-----------------|-----------------|-------------------------|-------------------|
A|--5---5--5-5--5--|--8---8--8-8--8--|--0-0--0--0-12-0--0-7-10-|--0-0--0--0-12--12-|



5/8                                 6/8                       

    E.  E  S E  E     E.  E  S E  E     S E  E  S S E   S S  S   S E  E  S E   E   E
C|-----------------|-----------------|-------------------------|----------------------|
G|-----------------|-----------------|-------------------------|----------------------|
D|-----------------|-----------------|-------------------------|----------------------|
A|-----------------|-----------------|-------------------------|----------------------|
E|-----------------|-----------------|-------------------------|----------------------|
A|--5---5--5-5--5--|--8---8--8-8--8--|--0-0--0--0-12-0--0-7-10-|-0-0--0--0-12--12--12-|


5/8                                 6/8                        5/8

    E.  E  S E  E     E.  E  S E  E     S E  E  S S E   S S  S    S E  E  S  E  E 
C|-----------------|-----------------|-------------------------|-------------------|
G|-----------------|-----------------|-------------------------|-------------------|
D|-----------------|-----------------|-------------------------|-------------------|
A|-----------------|-----------------|-------------------------|-------------------|
E|-----------------|-----------------|-------------------------|-------------------|
A|--5---5--5-5--5--|--8---8--8-8--8--|--0-0--0--0-12-0--0-7-10-|--0-0--0--0-12--12-|


6/8                                                    

    E.  E  S E  E  E    E.  E  S E  E  E    E.  E  S E  E  E    E.  E  S S  S       
C|-------------------|-------------------|-------------------|-------------------|
G|-------------------|-------------------|-------------------|-------------------|
D|-------------------|-------------------|-------------------|-------------------|
A|-------------------|-------------------|-------------------|-------------------|
E|-------------------|-------------------|-------------------|-------------------|
A|--5---5--5-5--5--5-|--5---5--5-5--5--7-|--8---8--8-8--8--8-|--8---8--8-10-10\--|




(4.38) Guitar Solo

 6/8                                                                 5/8
     E.  E  S E  E  S S    E.  E  S E  E  S S    E.  E  S E  E  S S    E.  E  S E  E 
C|----------------------|---------------------|---------------------|-----------------|
G|----------------------|---------------------|---------------------|-----------------|
D|------------7-----5-7-|-----------7-----5-7-|-----------7-----5-7-|-----------------|
A|---0---0--0----0------|--0---0--0----0------|--0---0--0----0------|--0---0--0-3--5--|
E|----------------------|---------------------|---------------------|-----------------|
A|----------------------|---------------------|---------------------|-----------------|


 6/8                                                               5/8
     E.  E  S E  E  S S    E.  E  S Q.           E.  E  S E  S S S S    E.  E  S E  E 
C|----------------------|---------------------|----------------------|-----------------|
G|----------------------|---------------------|----------------------|-----------------|
D|------------7-----5-7-|-----------7\--------|--------------3-3-----|------3----------|
A|---0---0--0----0------|--0---0--7-----------|------------------3-3-|-----------------|
E|----------------------|---------------------|--1---1--1-1----------|--1------1-3--3--|
A|----------------------|---------------------|----------------------|-----------------|


 6/8                                                                5/8
     E.  E  S E  E  S S    E.  E  S E  E  S S    E.  E  S E  E  S S    E.  E  S E  E 
C|----------------------|---------------------|---------------------|-----------------|
G|----------------------|---------------------|---------------------|-----------------|
D|------------7-----5-7-|-----------7-----5-7-|-----------7-----5-7-|-----------------|
A|---0---0--0----0------|--0---0--0----0------|--0---0--0----0------|--0---0--0-3--5--|
E|----------------------|---------------------|---------------------|-----------------|
A|----------------------|---------------------|---------------------|-----------------|


 6/8                                                                 
     E.  E  S E  E  S S    E.  E  S Q.           E.  E  S E  S S S S   E.  E  S E  S S S S 
C|----------------------|---------------------|----------------------|---------------------||
G|----------------------|---------------------|----------------------|---------------------||
D|------------7-----5-7-|-----------7\--------|--------------3-3-----|---------------------||
A|---0---0--0----0------|--0---0--7-----------|-----------3------3-3-|---------------------||
E|----------------------|---------------------|--1---1--1------------|-1---1--1-3--3-3-3-3-||
A|----------------------|---------------------|----------------------|---------------------||




(5.08) Pre-Chorus 3
 

6/8
   S S S S S S S S S S S S  S S S S S S S S S S S S  S S S S S S S S S S S S  S S S S S S S S S S S S  
C|------------------------|------------------------|-------------------------|------------------------|
G|------------------------|------------------------|-------------------------|------------------------|
D|------------------------|------------------------|-------------------------|------------------------|
A|------------------------|------------------------|-------------------------|------------------------|
E|-1-1-1-1-1-1-1-1-1-1-1-1|-3-3-3-3-3-3-3-3-3-3-3-3|-5-5-5-5-5-5-5-5-5-5-5-5-|-5-5-5-5-5-5-5-5-5-5-5-5|
A|------------------------|------------------------|-------------------------|------------------------|



   S S S S S S S S S S S S  S S S S S S S S S S S S  S S S S S S S S S S S S  S S S S S S E 
C|------------------------|------------------------|------------------------|------------------------||
G|------------------------|------------------------|------------------------|------------------------||
D|------------------------|------------------------|------------------------|------------------------||
A|------------------------|------------------------|------------------------|------------------------||
E|-1-1-1-1-1-1-1-1-1-1-1-1|-3-3-3-3-3-3-3-3-3-3-3-3|------------------------|------------------------||
A|------------------------|------------------------|-5-5-5-5-5-5-5-5-5-5-5-5|-5-5-5-5-5-5-5----------||




(5.24) Chorus 3   

6/8                                                              
     E.  E  S E  E  E    E.  E  S E  E  E    E.  E  S E  E  E    E.  E  S E   E   E 
C||--------------------|-------------------|-------------------|----------------------|
G||--------------------|-------------------|-------------------|----------------------|
D||--------------------|-------------------|-------------------|----------------------|
A||--------------------|-------------------|-------------------|----------------------|
E||--------------------|-------------------|-------------------|----------------------|
A||--0---0--0-0--0--0--|-3---3--3-3--3--3--|-8---8--8-8--8--8--|-8---8--8-10--10--10--|



    E.  E  S E  E  E    E.  E  S E  E  E    E.  E  S E  E  E    E.  E  S  E  E  E 
C|--------------------|-------------------|-------------------|----------------------|
G|--------------------|-------------------|-------------------|----------------------|
D|--------------------|-------------------|-------------------|----------------------|
A|--------------------|-------------------|-------------------|----------------------|
E|--------------------|-------------------|-------------------|----------------------|
A|--0---0--0-0--0--0--|-3---3--3-3--3--3--|-5---5--5-5--5--5--|-5---5--5--7--7--7----|



                                                               
    E.  E  S E  E  E    E.  E  S E  E  E    E.  E  S E  E  E    E.  E  S E   E   E 
C|--------------------|-------------------|-------------------|----------------------|
G|--------------------|-------------------|-------------------|----------------------|
D|--------------------|-------------------|-------------------|----------------------|
A|--------------------|-------------------|-------------------|----------------------|
E|--------------------|-------------------|-------------------|----------------------|
A|--0---0--0-0--0--0--|-3---3--3-3--3--3--|-8---8--8-8--8--8--|-8---8--8-10--10--10--|




    E.  E  S E  E  E    E.  E  S E  E  E    E.  E  S E  E  E    E.  E  S  E   E   E 
C|--------------------|-------------------|-------------------|----------------------||
G|--------------------|-------------------|-------------------|----------------------||
D|--------------------|-------------------|-------------------|----------------------||
A|--------------------|-------------------|-------------------|----------------------||
E|--------------------|-------------------|-------------------|----------------------||
A|--5---5--5-5--5--5--|-5---5--5-5--5--5--|-8---8--8-8--8--8--|-8---8--8--10--10--10-||




(5.55) Chorus 4 (with guitar solo line)

6/8                                                              
     E.  E  S E  E  E    E.  E  S E  E  E    E.  E  S E  E  E    E.  E  S E   E   E 
C||--------------------|-------------------|-------------------|----------------------|
G||--------------------|-------------------|-------------------|----------------------|
D||--------------------|-------------------|-------------------|----------------------|
A||--------------------|-------------------|-------------------|----------------------|
E||--------------------|-------------------|-------------------|----------------------|
A||--0---0--0-0--0--0--|-3---3--3-3--3--3--|-8---8--8-8--8--8--|-8---8--8-10--10--10--|



    E.  E  S E  E  E    E.  E  S E  E  E    E.  E  S E  E  E    E.  E  S  E  E  E 
C|--------------------|-------------------|-------------------|----------------------|
G|--------------------|-------------------|-------------------|----------------------|
D|--------------------|-------------------|-------------------|----------------------|
A|--------------------|-------------------|-------------------|----------------------|
E|--------------------|-------------------|-------------------|----------------------|
A|--0---0--0-0--0--0--|-3---3--3-3--3--3--|-5---5--5-5--5--5--|-5---5--5--7--7--7----|



                                                               
    E.  E  S E  E  E    E.  E  S E  E  E    E.  E  S E  E  E    E.  E  S E   E   E 
C|--------------------|-------------------|-------------------|----------------------|
G|--------------------|-------------------|-------------------|----------------------|
D|--------------------|-------------------|-------------------|----------------------|
A|--------------------|-------------------|-------------------|----------------------|
E|--------------------|-------------------|-------------------|----------------------|
A|--0---0--0-0--0--0--|-3---3--3-3--3--3--|-8---8--8-8--8--8--|-8---8--8-10--10--10--|




    E.  E  S E  E  E    E.  E  S E  E  E    E.  E  S E  E  E    E.  E  S  E   E   E 
C|--------------------|-------------------|-------------------|----------------------||
G|--------------------|-------------------|-------------------|----------------------||
D|--------------------|-------------------|-------------------|----------------------||
A|--------------------|-------------------|-------------------|----------------------||
E|--------------------|-------------------|-------------------|----------------------||
A|--5---5--5-5--5--5--|-5---5--5-5--5--5--|-8---8--8-8--8--8--|-8---8--8--10--10--10-||





(6.27) Outro

6/8
   S E  E  S  S E  E  S   S E  E  S S  E  E  S   S E  E  S S E  E  S   S E  E  S S E  S S S 
C|----------------------|----------------------|---------------------|----------------------|
G|----------------------|----------------------|---------------------|----------------------|
D|----------------------|----------------------|---------------------|----------------------|
A|----------------------|----------------------|---------------------|----------------------|
E|----------------------|----------------------|---------------------|----------------------|
A|-0-0--0--0-12-0--0--0-|-0-0--0--0-10-0--0--0-|-0-0--0--0-8-0--0--0-|-0-0--0--0-7-0--0-3-7-|




   S E  E  S  S E  E  S   S E  E  S S  E  E  S   S E  E  S S E  E  S   S E  E  S T T T T T T T T T T T T 
C|----------------------|----------------------|---------------------|-----------------------------------|
G|----------------------|----------------------|---------------------|-----------------------------------|
D|----------------------|----------------------|---------------------|-----------------------------------|
A|----------------------|----------------------|---------------------|-----------7-8-7-5-----------5-7-8-|
E|----------------------|----------------------|---------------------|-------------------8-7-5-7-8-------|
A|-0-0--0--0-12-0--0--0-|-0-0--0--0-10-0--0--0-|-0-0--0--0-8-0--0--0-|-0-0--0--0-------------------------|




   S E  E  S  S E  E  S   S E  E  S S  E  E  S   S E  E  S S E  E  S   S E  E  S S E  S S S 
C|----------------------|----------------------|---------------------|----------------------|
G|----------------------|----------------------|---------------------|----------------------|
D|----------------------|----------------------|---------------------|----------------------|
A|----------------------|----------------------|---------------------|----------------------|
E|----------------------|----------------------|---------------------|----------------------|
A|-0-0--0--0-12-0--0--0-|-0-0--0--0-10-0--0--0-|-0-0--0--0-8-0--0--0-|-0-0--0--0-7-0--0-3-7-|


                                                                               ^  ^  ^  
   S E  E  S  S E  E  S   S E  E  S S  E  E  S   S E  E  S S E  E  S   S E  E  S E  E  E
C|----------------------|----------------------|---------------------|----------------------|
G|----------------------|----------------------|---------------------|----------------------|
D|----------------------|----------------------|---------------------|----------------------|
A|----------------------|----------------------|---------------------|----------------------|
E|----------------------|----------------------|---------------------|----------------------|
A|-0-0--0--0-12-0--0--0-|-0-0--0--0-10-0--0--0-|-0-0--0--0-8-0--0--0-|-0-0--0--0-5--5--5----|





Duration Legend
---------------
H - half
Q - quarter
E - 8th
S - 16th
T - 32nd
. - note dotted
|-n-|  - n-tuplets


Suggest correction
Give kudos to tab author, rate the tab!
1 2 3 4 5
comments
print report bad tab
guest
You may want to rate the tab now too:
select rating
Wanna post a correction for this tab? Suggest correction