Oops, an error
Loading. Please wait.

Through Her Eyes tab

version 1
version 1

Whole song

65,618 views 66 this week
4 commentsread comments
1 2 3 4 5
x 25
add to favorites
×
Save as Personal and add changes to this tab that will be seen only by you. Learn more ›
×
You can save this tab as Personal to edit and correct it or add notes. All changes will be seen only by you. Learn more »
launch autoscroll
font size
0
reset
how to read this tab
guitar tuner
backing track
0:00
0:00
edit
Autoscroll
slow
fast
+/-
esc
set tempo
stop
Author
Unregistered
[Intro] 2x 
e|--------3--2-----|------3--2-----|-------3--2-----|------3--2-----|-------3--2------|
B|--------------3--|------------3--|-------------3--|------------3--|--------------3--| 
G|-----0-----------|---0-----------|----0-----------|---0-----------|----0------------| 
D|-----------------|---------------|----------------|---------------|-----------------|
A|-----------------|---------------|-2--------------|---------------|-----------------| 
E|--3--------------|---------------|----------------|---------------|-0---------------|

e|------3--2-----|-------3--2-----|------3--2-----|
B|------------3--|-------------3--|------------3--| 
G|---0-----------|----0-----------|---0-----------| 
D|---------------|----------------|---------------| 
A|---------------|-3--------------|---------------| 
E|---------------|----------------|---------------| 

G
She never really had a chance  
D
On that fateful moonlit night  
Em9
Sacrificed without a fight  
C9
A victim of her circumstance  
  
G
Now that I've become aware  
D
And I've exposed this tragedi  
Em9
A sadness grows inside of me  
C9
It all seems so unfair  

Em                                     D
I'm learning all about my life  
                                       G
By looking through her eyes  

[Solo]
G D Em9 C9
  
G
Just beyond the churchyard gates  
D
Where the grass is overgrown  
Em9
I saw the writing on her stone  
C9
I felt like I would suffocate  
  
G
In loving memory of our child  
D
So innocent, eyes open wide  
Em9
I felt so empty as I cried  
C9
Like part of me had died  
  
Em                                    D
I'm learning all about my life  
                                        Am
By looking through her eyes  
  

And as her image  
C
Wandered through my head  
G
I wept just like a baby  
        D
As I lay awake in bed  
  
Am
And I know what it's like  
C
To lose someone you love  
         Em                       D
And this felt just the same  
  
G
She wasn't given any choice  
D
Desperation stole her voice  
Em9
I've been given so much more in life  
C9
I've got a son, I've got a wife  

G  
I had to suffer one last time  
D
To grieve for her and say goodbye  
Em9
Relive the anguish of my past  
C9
To find out who I was at last  
  
Em                              D
The door has opened wide  
                                 C               
I'm turning with the tide  
Am                              G                 D            Em9             C9
Looking through her eyes.

G            D            Em9             C9


Through Her Eyes - Guitar Tab (solo)

 (00:12)       (00:24)        (00:28)                     (00:36)
                                                      bend before picking
e|----------|-------------|--------------------------|--*----------------------|
B|------10--|-------------|-15b17r15--15-15-14-14\12-|-15r14-12-10-12----------|
G|-9b11-----|-11\9-7-9b11-|--------------------------|----------------11-9\7-7-|
D|----------|-------------|--------------------------|-------------------------|
A|----------|-------------|--------------------------|-------------------------|
E|----------|-------------|--------------------------|-------------------------|

(00:51)
                      ~          ~
e|-17b19r17-15-----------------------|
B|-------------19-15-17---19-15-17---|
G|-----------------------------------|
D|-----------------------------------|
A|-----------------------------------|
E|-----------------------------------|

[central solo]
(02:21)
       ~            ~            ~             ~           ~
e|----------------------------------------------------------------|
B|---/12--12b13r12--------10-/12----------------------------------|
G|-7---------------12--12--------9---12-11------------------------|
D|-----------------------------------------9-/10----9-/10-\9------|
A|----------------------------------------------------------------|
E|----------------------------------------------------------------|

[final solo]
(04:39)
     ~          ~              ~              ~
e|----------------------------------------------------------------|
B|---/12--12\10\8-------10-/12------------------------------------|
G|-7-----------------12--------9---12-11--------------------------|
D|----------------------------------------9-/10----9-/10----------|
A|----------------------------------------------------------------|
E|----------------------------------------------------------------|
       ~              ~        
e|----------------------------10-8-7------------------------------|
B|---/12--12b13r12-8/10--------------10/12\10-8--8-/10-12---------|
G|-7-----------------------7------------------------------11/12-9-|
D|----------------------------------------------------------------|
A|----------------------------------------------------------------|
E|----------------------------------------------------------------|
    ~
e|-----------|
B|-----------|
G|-----------|
D|-/9--7-5---|
A|-----------|
E|-----------|

************************************

| *  Natural harmonic
| r  Release
| b  Bend
| \  Slide down
| ~  Vibrato
| /  Slide up
************************************
Suggest correction
Creating personal tab
Creating personal tab
You can edit any tab online and save it as your Personal.

You can edit, replace or remove any tab part or add personal notes – all changes will be seen only by you.

Personal tabs can be accessed anytime from any device, even offline.
Learn more »
comments
print report bad tab
4 comments total. Showing first comments.
+1 reply
Kid Fisto 161 Apr 20, 2007 04:00 PM

i love this song.....and your tab is very good.

-2 reply
Gui.Cote 10 Jun 10, 2008 01:44 PM

it's note a tab...it's chords...

+5 reply
Divided_Eye 10 Nov 12, 2008 05:29 PM

i think its all correct, except that i think instead of C9 its a Cadd9.

guest
Wanna post a correction for this tab? Suggest correction