Oops, an error
Loading. Please wait.

You Not Me tab

version 2
version 2

Whole song

Interactive

25 views 1 this week
no commentswrite comment
1 2 3 4 5
2 more votes to show rating
add to favorites
×
Save as Personal and add changes to this tab that will be seen only by you. Learn more ›
×
You can save this tab as Personal to edit and correct it or add notes. All changes will be seen only by you. Learn more »
launch autoscroll
font size
0
reset
how to read this tab
guitar tuner
backing track
0:00
0:00
edit
Autoscroll
slow
fast
+/-
esc
set tempo
stop
Author
Difficulty
[Intro]

   Distorted Guitar w/ Wah      Repeat x3    
e||----------------------------------||-----------------------------------|
B||----------------------------------||-----------------------------------|
G||.--------------------------------.||-----------------------------------|
D||.--------------------------------.||-----------------------------------|
A||----------------------------------||-----------------------4-----3-----|
E||---0-2--2~-2~-0-2~--0-2~--0-2-5~--||--0-2--2~-2~-0-2~--0-2---0-2---2---|


[Verse]

   16 measures of rest

[Pre-chorus] 

   Distorted Guitar w/ Wah     Repeat x3
e||---------------|------------------||------------------||
B||---------------|-5--5-5--7--7-7---||------------------||
G||.--4h6-6--6-6--|-4--4-4--4--4-4--.||--4h6-6--6--6-6\--||
D||.--4---4--4-4--|-----------------.||--4---4--4--4-4\--||
A||---------------|------------------||------------------||
E||---------------|------------------||------------------||

[Chorus]

   Distorted Guitar
   Let Ring-----------------------------------------------------------------------------------------------|
e|-----4-----|------2-----|-----------|-----0----------|-----4----4--|-----2----2---|-----6-----|-----0-----|
B|--------4--|--5------5--|-----0-----|--------0-------|--------4----|--------2-----|--------7--|--------0--|
G|-----------|--4---------|--------3--|----------------|-------------|--4---------4-|-----------|-----------|
D|--6--------|--2---------|--4--------|--2-------------|--6----------|--4-----------|--8--------|--9--------|
A|--6--------|------------|--4--------|--2-------------|--6----------|--2-----------|--6--------|--7--------|
E|--4--------|--4---------|--2--------|--0---------2---|--4----------|--------------|-----------|-----------|


e|--------|-----|-----|-----|-----|-----|-----|-----||
B|--------|-----|-----|-----|-----|-----|-----|-----||
G|--------|-----|-----|-----|-----|-----|-----|-----||
D|--6/8\4-|--6--|--4--|--2--|--4--|--6--|--4--|--2--||
A|--6/8\4-|--6--|--4--|--2--|--4--|--6--|--4--|--2--||
E|--4/6\2-|--4--|--2--|--0--|--2--|--4--|--2--|--0--||


    Distorted Guitar w/ wah                     Play x2
e||------------------------|-------------------------||
B||------------------------|-------------------------||
G||.-----------------------|------------------------.||
D||.--------------------2--|---------------------2--.||
A||---------------------2--|---------------------2---||
E||--3p2--3p2--3p2--3p2-0--|--3p2--3p2--3p2--3p2-0---||

[Verse]

   8 measures of rest

   Distorted Guitar w/ Wah     Repeat x3   
e||----------------------------------||-------------------|
B||----------------------------------||-------------------|
G||.--------------------------------.||-------------------|
D||.--------------------------------.||---------------4\--|
A||----------------------------------||---------------4\--|
E||---0-2--2~-2~-0-2~--0-2~--0-2-5~--||--0-2--2~-2~-0-2\--|

[Chorus]


   Distorted Guitar
   Let Ring-----------------------------------------------------------------------------------------------|
e|-----4-----|------2-----|-----------|-----0----------|-----4----4--|-----2----2---|-----6-----|-----0-----|
B|--------4--|--5------5--|-----0-----|--------0-------|--------4----|--------2-----|--------7--|--------0--|
G|-----------|--4---------|--------3--|----------------|-------------|--4---------4-|-----------|-----------|
D|--6--------|--2---------|--4--------|--2-------------|--6----------|--4-----------|--8--------|--9--------|
A|--6--------|------------|--4--------|--2-------------|--6----------|--2-----------|--6--------|--7--------|
E|--4--------|--4---------|--2--------|--0---------2---|--4----------|--------------|-----------|-----------|


e|--------|-----|-----|-----|-----|-----|-----|-----||
B|--------|-----|-----|-----|-----|-----|-----|-----||
G|--------|-----|-----|-----|-----|-----|-----|-----||
D|--6/8\4-|--6--|--4--|--2--|--4--|--6--|--4--|--2--||
A|--6/8\4-|--6--|--4--|--2--|--4--|--6--|--4--|--2--||
E|--4/6\2-|--4--|--2--|--0--|--2--|--4--|--2--|--0--||

[Instrumental Break]

e|------------x--x-x--x--x--x-x--x-x--x--|--------------|----------------------------------------------------|
B|------------x--x-x--x--x--x-x--x-x--x--|--------------|----------------------------------------------------|
G|--4h6==\----x--x-x--x--x--x-x--x-x--x--|--\-2--2-2h4--|--4h6==\-0-0-0-0-0-0-0-0-0-0-0-0-0-0-0-0-0-0-0-0----|
D|--4====\----x--x-x--x--x--x-x--x-x--x--|--\-2--2-2----|--4====\--------------------------------------------|
A|------------x--x-x--x--x--x-x--x-x--x--|--------------|----------------------------------------------------|
E|------------x--x-x--x--x--x-x--x-x--x--|--------------|------------------------------------------------16\-|
                                                                  **Play this part by tremolo picking the 
                                                                   open G string while sliding your fret 
                                                                   hand from 2nd fret to 12th fret just barely
                                                                   touching the string (natural harmonics).

e|--------------|-------------------9\--|--7--5------------------|
B|--------------|------------5-5-x--7\--|--7--5--5---------------|
G|-x-2--2--2-4--|--4h6-6-x-4-4-4-x------|--------4--[4]b5-2------|
D|-x-2--2--2-2--|--4---4-x-4------------|-------------------4-2--|
A|-----------2--|-----------------------|------------------------|
E|-----------0--|-----------------------|------------------------|

e|-------------14------------------------------------------------------------------|
B|-------16b17----17-16-15-14-------------------------------------------------14\--|
G|--4p6-----------------------17-16-15-14----------------14-15-14-------------14\--|
D|--4-------------------------------------16-15-14-15-16----------16-15-14-15------|
A|---------------------------------------------------------------------------------|
E|---------------------------------------------------------------------------------|

           Slight PM-------------------------|
e|--------|-----------------------------------|
B|-----5--|-----------------------------------|
G|--4--4--|--4-2-----4-2-----4-2-----4-2------|
D|--4-----|------4-2-----4-2-----4-2-----4-2--|
A|--------|-----------------------------------|
E|--------|-----------------------------------|

[Pre-chorus] 

   Distorted Guitar w/ Wah     Repeat x3
e||---------------|------------------||------------------||
B||---------------|-5--5-5--7--7-7---||------------------||
G||.--4h6-6--6-6--|-4--4-4--4--4-4--.||--4h6-6--6--6-6\--||
D||.--4---4--4-4--|-----------------.||--4---4--4--4-4\--||
A||---------------|------------------||------------------||
E||---------------|------------------||------------------||

[Chorus]

   Distorted Guitar
   Let Ring-----------------------------------------------------------------------------------------------|
e|-----4-----|------2-----|-----------|-----0----------|-----4----4--|-----2----2---|-----6-----|-----0-----|
B|--------4--|--5------5--|-----0-----|--------0-------|--------4----|--------2-----|--------7--|--------0--|
G|-----------|--4---------|--------3--|----------------|-------------|--4---------4-|-----------|-----------|
D|--6--------|--2---------|--4--------|--2-------------|--6----------|--4-----------|--8--------|--9--------|
A|--6--------|------------|--4--------|--2-------------|--6----------|--2-----------|--6--------|--7--------|
E|-\4--------|--4---------|--2--------|--0---------2---|--4----------|--------------|-----------|-----------|


e|--------|-----|-----|-----|-----|-----|-----|-----|-----|-----|-----|------||
B|--------|-----|-----|-----|-----|-----|-----|-----|-----|-----|-----|------||
G|--------|-----|-----|-----|-----|-----|-----|-----|-----|-----|-----|------||
D|--6/8\4-|--6--|--4--|--2--|--4--|--6--|--4--|--2--|--4--|--6--|--4--|--2---||
A|--6/8\4-|--6--|--4--|--2--|--4--|--6--|--4--|--2--|--4--|--6--|--4--|--2---||
E|--4/6\2-|--4--|--2--|--0--|--2--|--4--|--2--|--0--|--2--|--4--|--2--|--0---||

[Outro]

    Distorted Guitar w/ wah                     Play x6
e||------------------------|-------------------------||
B||------------------------|-------------------------||
G||.-----------------------|------------------------.||
D||.--------------------2--|---------------------2--.||
A||---------------------2--|---------------------2---||
E||--3p2--3p2--3p2--3p2-0--|--3p2--3p2--3p2--3p2-0---||

                         PM-----|                       PM-----| 
e||-------------------------------|-------------------------------|
B||-------------------------------|-------------------------------|
G||-------------------------------|-------------------------------|
D||-------------------------------|-------------------------------|
A||----------------------2-2-2-2--|---------------------2-2-2-2---|
E||---3p2--3p2--3p2--3p2-0-0-0-0--|--3p2--3p2--3p2--3p2-0-0-0-0---|

                         PM-----|                       PM---| 
e||-------------------------------|------------------------------||
B||-------------------------------|------------------------------||
G||-------------------------------|------------------------------||
D||-------------------------------|------------------------------||
A||----------------------2-2-2-2--|---------------------2-2-2-2--||
E||---3p2--3p2--3p2--3p2-0-0-0-0--|--3p2--3p2--3p2--3p2-0-0-0-0--||


************************************

| x   Dead note
| h   Hammer-on
| p   Pull-off
| b   Bend
| /   Slide up
| \   Slide down
| ~   Vibrato
| PM  Palm mute
| [n] Pinch harmonic
| ==  Hold note/chord
************************************

            
            
Suggest correction
Creating personal tab
Creating personal tab
You can edit any tab online and save it as your Personal.

You can edit, replace or remove any tab part or add personal notes – all changes will be seen only by you.

Personal tabs can be accessed anytime from any device, even offline.
Learn more »
Give kudos to tab author, rate the tab!
1 2 3 4 5
comments
print report bad tab
guest
You may want to rate the tab now too:
select rating
Wanna post a correction for this tab? Suggest correction