Oops, an error
Loading. Please wait.

Ytse Jam tab

version 3
version 3

Whole song

  • This tab is based off of the studio recorded versi... Show more

Interactive

58 views 3 this week
no commentswrite comment
1 2 3 4 5
3 more votes to show rating
add to favorites
×
Save as Personal and add changes to this tab that will be seen only by you. Learn more ›
×
You can save this tab as Personal to edit and correct it or add notes. All changes will be seen only by you. Learn more »
launch autoscroll
font size
0
reset
how to read this tab
guitar tuner
backing track
0:00
0:00
edit
Autoscroll
slow
fast
+/-
esc
set tempo
stop
Author
Difficulty
About this tab version
This tab is based off of the studio recorded version from When Dream and Day Unite. Includes the guitar solo. Was this info helpful? Yes No
Majesty ---> ytsejaM ---> Ytse Jam

[Intro]
Distorted Guitar
                \ Dive w/ bar
e|-----|-----|---------------|--6--|--(6)--|--(6)--|--(6)--||
B|--5--|-----|---------------|--6--|--(6)--|--(6)--|--(6)--||
G|--4--|--3--|--2------------|--8--|--(8)--|--(8)--|--(8)--||
D|--2--|--3--|--2------------|--8--|--(8)--|--(8)--|--(8)--||
A|-----|--1--|--0------------|--6--|--(6)--|--(6)--|--(6)--||
E|-----|-----|---------------|--6--|--(6)--|--(6)--|--(6)--||

[Main Riff]

e|-------------------------------|----------------------------|-----------------|--------------------------|
B|-------------------------------|----------------------------|-----------------|--------------------------|
G|--7-8-7~----9-7-9~----10-9-10~-|--12-10-12--10-9-10--9-7-9--|--7-6-7~---------|--------------------------|
D|---------0---------0-----------|----------------------------|---------0--8-7--|--8--7-5-7--5-3-5--3-2-3~-|
A|-------------------------------|----------------------------|-----------------|--------------------------|
E|-------------------------------|----------------------------|-----------------|--------------------------|

e|-------------------------------|----------------------------|-----------------|--------------------------|
B|-------------------------------|----------------------------|-----------------|--------------------------|
G|--7-8-7~----9-7-9~----10-9-10~-|--12-10-12--10-9-10--9-7-9--|--7-6-7~---------|--------------------------|
D|---------0---------0-----------|----------------------------|---------0--8-7--|--8--7-5-7--5-3-5--3-2-3~-|
A|-------------------------------|----------------------------|-----------------|--------------------------|
E|-------------------------------|----------------------------|-----------------|--------------------------|

e|-------------------------------|----------------------------|-----------------|--------------------------|
B|-------------------------------|----------------------------|-----------------|--------------------------|
G|--7-8-7~----9-7-9~----10-9-10~-|--12-10-12--10-9-10--9-7-9--|--7-6-7~---------|--------------------------|
D|---------0---------0-----------|----------------------------|---------0--8-7--|--8--7-5-7--5-3-5--3-2-3~-|
A|-------------------------------|----------------------------|-----------------|--------------------------|
E|-------------------------------|----------------------------|-----------------|--------------------------|
                                                     Harmony  |                 |
                                                             e|-----------------|--------------------------|
                                                             B|-----------------|--------------------------|
                                                             G|-----------------|--------------------------|
                                                             D|------------8-10-|-12-10-8-10--8-7-8--5-3-5~|
                                                             A|-----------------|--------------------------|
                                                             E|-----------------|--------------------------|

e|-------------------------------|----------------------------|-----------------|--------------------------|
B|-------------------------------|----------------------------|-----------------|--------------------------|
G|--7-8-7~----9-7-9~----10-9-10~-|--12-10-12--10-9-10--9-7-9--|--7-6-7~---------|--------------------------|
D|---------0---------0-----------|----------------------------|---------0--8-7--|--8--7-5-7--5-3-5--3-2-3~-|
A|-------------------------------|----------------------------|-----------------|--------------------------|
E|-------------------------------|----------------------------|-----------------|--------------------------|
                                                              |                 |
                                                             e|-----------------|--------------------------|
                                                             B|-----------------|--------------------------|
                                                             G|-----------------|--------------------------|
                                                             D|------------8-10-|-12-10-8-10--8-7-8--5-3-5~|
                                                             A|-----------------|--------------------------|
                                                             E|-----------------|--------------------------|

                                                                          PM------------------------------|
e|-------------------------------|----------------------------|-----------------|--------------------------|
B|-------------------------------|----------------------------|-----------------|--------------------------|
G|--7-8-7~----9-7-9~----10-9-10~-|--12-10-12--10-9-10--9-7-9--|--7-6-7~---------|--------------------------|
D|---------0---------0-----------|----------------------------|---------0--8-7--|--8--7-5-7--5-3-5--3-2-3~-|
A|-------------------------------|----------------------------|-----------------|--------------------------|
E|-------------------------------|----------------------------|-----------------|--------------------------|

  
                                                                          PM------------------------------|
e|-------------------------------|----------------------------|-----------------|--------------------------|
B|-------------------------------|----------------------------|-----------------|--------------------------|
G|--7-8-7~----9-7-9~----10-9-10~-|--12-10-12--10-9-10--9-7-9--|--7-6-7~---------|--------------------------|
D|---------0---------0-----------|----------------------------|---------0--8-7--|--8--7-5-7--5-3-5--3-2-3~-|
A|-------------------------------|----------------------------|-----------------|--------------------------|
E|-------------------------------|----------------------------|-----------------|--------------------------|
            
      PM--|  PM--|           PM--|   PM-------|      PM--|  PM--|        PM----------------|
e|----------------------|-----------------------|----------------------|---------------------|
B|----------------------|-----------------------|----------------------|---------------------|
G|3---------------------|-----------------------|----------------------|---------------------|
D|4---------------------|-----------------------|----------------------|---------------------|
A|--7------7------8--5--|--7------7-------------|--7------7------8--5--|---------4--5--7--8--|
E|--5--5-5-5--5-5-6--3--|--5--5-5-5--5-5-6-6-9--|--5--5-5-5--5-5-6--3--|--5-5-6--------------|

   PM------------------------------------------------------------------------------------------------------|
e|-------------------------|-------------------------|-------------------------|-----------------------------|
B|-------------------------|-------------------------|-------------------------|-----------------------------|
G|-------------------------|-------------------------|-------------------------|-----------------------------|
D|-------------------------|--------------------6-6--|-------------------------|----------6-6-7-7-9-9-10-10--|
A|--7--7-7-7--7-7-8-8-5-5--|--7--7-7-7--7-7-8-8------|--7--7-7-7--7-7-8-8-5-5--|--7-7-8-8--------------------|
E|-------------------------|-------------------------|-------------------------|-----------------------------|

      PM--|  PM--|           PM--|  PM--|            PM--|  PM--|
e|----------------------|-----------------------|----------------------|--------------------------------|
B|----------------------|-----------------------|----------------------|--------------------------------|
G|----------------------|-----------------------|----------------------|--------------------------------|
D|----------------------|-----------------------|----------------------|----------------------[2]--[3]--|
A|--7------7------8--5--|--7------7------8--11--|--7------7------8--5--|------------[4]--[5]------------|
E|--5--5-5-5--5-5-6--3--|--5--5-5-5--5-5-6--9---|--5--5-5-5--5-5-6--3--|--[5]--[6]----------------------|

      PM--|  PM--|           PM--|  PM--|         PM--|  PM--|
e|----------------------|--------------------|----------------------|---------------------|
B|----------------------|--------------------|----------------------|---------------------|
G|----------------------|--------------------|----------------------|---------------------|
D|--9------9------9--7--|--9------9------10--|--9------9------9--7--|--------6--7--9--10--|
A|--7--7-7-7--7-7-7--5--|--7--7-7-7--7-7-8---|--7--7-7-7--7-7-7--5--|--7--8---------------|
E|----------------------|--------------------|----------------------|---------------------|

   PM--------|    PM---|    PM---|          PM------------------------------------------------------------|  
e|---------------------------------|---------------------------------|--------------------------------------|
B|---------------------------------|---------------------------------|--------------------------------------|
G|---------------------------------|---------------------------------|--------------------------------------|
D|------------15--------14---------|--[12]~--------------------------|-------------------------15-15-15-15--|
A|--12--12-12-----12-12-----12-12--|---------13-13-13-13-15-15-15-15-|-17-17-17-17-16-16-16-16--------------|
E|---------------------------------|---------------------------------|--------------------------------------|
   
   PM----------|                              PM--------|    PM---|    PM---|        PM---------------------|
e|------------------------------------------|--------------------------------|-------------------------------|
B|------------------------------------------|--------------------------------|-------------------------------|
G|--------------14h15p14--------------------|--------------------------------|-------------------------------|
D|--14-14-14-14----------17-15-14-----------|--------------------------------|-------------------------------|
A|--------------------------------17-16-13~-|------------15--------14--------|-[12]~-------------------------|
E|------------------------------------------|--12--12-12-----12-12-----12-12-|-------13-13-13-13-15-15-15-15-|

   PM-----------------------------------------------|
e|-------------------------------------|------------------------------------------|
B|-------------------------------------|------------------------------------------|
G|-------------------------------------|------------------------------------------|
D|-------------------------------------|-------------14h15p14---------------------|
A|-------------------------15-15-15-15-|-14-14-14-14----------17-15-14------------|
E|-17-17-17-17-16-16-16-16-------------|-------------------------------17-16-13~--|

   PM------------------------------------------------------------------------------------------------------|
e|--------------------------|-------------------------|-------------------------|----------------------------|
B|--------------------------|-------------------------|-------------------------|----------------------------|
G|--------------------------|-------------------------|-------------------------|----------------------------|
D|--------------------------|---------------------6-6-|-------------------------|---------6-6-7-7-9-9-10-10--|
A|--7--7-7-7-7--7-7-8-8-5-5-|-7--7-7-7-7--7-7-8-8-----|-7--7-7-7-7--7-7-8-8-5-5-|-7-7-8-8--------------------|
E|--------------------------|-------------------------|-------------------------|----------------------------|

e|-------------------|-------------------|------------------------|
B|-------------------|-------------------|---------9--10--12--13--|
G|--9~~--9~~--10--7--|--9~~--9~~--10--7--|--9--10-----------------|
D|-------------------|-------------------|------------------------|
A|-------------------|-------------------|------------------------|
E|-------------------|-------------------|------------------------|

   Tremolo Picking-----------------------------------------------------------------------------------------|
e|-------------------|-------------N9--|------------------|-----------N9--N10--N12--N13--|--N12----N13--N10--|
B|--N10-----N11--N8--|--N10----N11-----|--N10----N11--N8--|--N10--N11--------------------|-------------------|
G|-------------------|-----------------|------------------|------------------------------|-------------------|
D|-------------------|-----------------|------------------|------------------------------|-------------------|
A|-------------------|-----------------|------------------|------------------------------|-------------------|
E|-------------------|-----------------|------------------|------------------------------|-------------------|
 
  Tremolo Picking-------------------------------------------------------|
e|--N12----N13--N16--|--N12----N13-------|--N12--N13--N16--N17--N19--N20--|
B|-------------------|--------------N15--|--------------------------------|
G|-------------------|-------------------|--------------------------------|
D|-------------------|-------------------|--------------------------------|
A|-------------------|-------------------|--------------------------------|
E|-------------------|-------------------|--------------------------------|

e|-------------------------------|----------------------------|-----------------|--------------------------|
B|-------------------------------|----------------------------|-----------------|--------------------------|
G|--7-8-7~----9-7-9~----10-9-10~-|--12-10-12--10-9-10--9-7-9--|--7-6-7~---------|--------------------------|
D|---------0---------0-----------|----------------------------|---------0--8-7--|--8--7-5-7--5-3-5--3-2-3~-|
A|-------------------------------|----------------------------|-----------------|--------------------------|
E|-------------------------------|----------------------------|-----------------|--------------------------|

e|-------------------------------|----------------------------|-------------------|--------------------------|
B|-------------------------------|----------------------------|-------------------|--------------------------|
G|--7-8-7~----9-7-9~----10-9-10~-|--12-10-12--10-9-10--9-7-9--|--7-6-[7]~---------|--------------------------|
D|---------0---------0-----------|----------------------------|-----------0--8-7--|--8--7-5-7--5-3-5--3-2-3~-|
A|-------------------------------|----------------------------|-------------------|--------------------------|
E|-------------------------------|----------------------------|-------------------|--------------------------|

Clean Guitar 
   Let Ring------------------------------------------------------------------------|
e|--------------------------|--------------------|-----------------------------------|
B|--------3--------3-----3--|--------6-----5-----|--------3--------------------------|
G|-----2--------0-----------|-----5-----------5--|-----2-----2-----2-----2-----2-----|
D|--0--------2--------3-----|--5--------5--------|--0--------------------------------|
A|--------------------------|--------------------|--------------1-----0--------------|
E|--------------------------|--------------------|--------------------------3-----1--|

   Let Ring---------------------------------------------------------------------------|
e|--------------------------|--------------------|--------------------------------------|
B|--------3--------3-----3--|--------6-----5-----|--------3-----------------------------|
G|-----2--------0-----------|-----5-----------5--|-----2-----2-----2-----2-----2-----2--|
D|--0--------2--------3-----|--5--------5--------|--0-----------------------------------|
A|--------------------------|--------------------|--------------1-----0-----------------|
E|--------------------------|--------------------|--------------------------1-----0-----|

Distorted Guitar
                                 PM------------------------------|
e|-------------|--------------|-------------------------------------|-------------|---------------|
B|-------------|------6---5---|-------------------------------------|-------------|------6--5-----|
G|-------------|--0---5---5---|-------------------------------------|-------------|--0---5--5--7--|
D|--7---5---2--|--0-----------|--0-0-8-8-0-0-7-7-0-0-5-5-0-0-3-3----|--7---5---2--|--0---------5--|
A|--5---3---0--|--------------|----------------------------------3--|--5---3---0--|---------------|
E|-------------|--------------|-------------------------------------|-------------|---------------|

e|---------------------------|-------------------------|
B|---------------------------|-------------------------|
G|---------------------------|-------------------------|
D|--8-7-8--7-5-7--5-3-5--3-2-|-3-----------------------|
A|---------------------------|----7-5-7--5-3-5--3-1-4~-|
E|---------------------------|-------------------------|

        PM------------------|        PM------------------|     PM------------------------------|
e||-----------------------------|----------------------------|-----------------------------------|
B||-----------------------------|----------------------------|-----------------------------------|
G||.----------------------------|----------------------------|-----------------------------------|
D||.--2----------------------7--|--2----------------------7--|-----------------------------------|
A||---0--0-0-8-8-0-0-7-7-0-0-5--|--0--0-0-8-8-0-0-7-7-0-0-5--|--1-1-1-1-3-3-3-3-5-5-5-5-4-4-4-4--|
E||-----------------------------|----------------------------|-----------------------------------|

   PM--------------|      
e|--------------------------------|| Repeat 3x
B|--------------------------------||
G|------------------2h3p2p0------.||
D|--3-3-3-3-2-2-2-2---------3p2--.||
A|--------------------------------||
E|--------------------------------||

      PM------------------|        PM------------------|     PM------------------------------|
e|----------------------------|----------------------------|-----------------------------------|
B|----------------------------|----------------------------|-----------------------------------|
G|----------------------------|----------------------------|-----------------------------------|
D|--2----------------------7--|--2----------------------7--|-----------------------------------|
A|--0--0-0-8-8-0-0-7-7-0-0-5--|--0--0-0-8-8-0-0-7-7-0-0-5--|--1-1-1-1-3-3-3-3-5-5-5-5-4-4-4-4--|
E|----------------------------|----------------------------|-----------------------------------|

   PM--------------|
e|----------------------------|---------------|
B|----------------------------|---------------|
G|----------------------------|--2h3p2p0------|
D|----------------------------|----------3p3--|
A|--8-8-8-8-7-7-7-7-[5]~~~~~--|---------------|
E|----------------------------|---------------|

[SOLO SECTION]
[Keyboard solo]

      PM--------------|                          PM-------------|
e||-----------------------|------------------|----------------------|------------------------|| Repeat 4x
B||-----------------------|------------------|----------------------|------------------------||
G||.----------------------|-----2h3p2p0------|----------------------|--4--3----2h3p2p0------.||
D||.--2-------------------|--3----------3p2--|--2-------------------|--2--1------------3p2--.||
A||---0--2--2-2-2--2-2-2--|--1---------------|--0--2--2-2-2--2-2-2--|------------------------||
E||-----------------------|------------------|----------------------|------------------------||

[Guitar Solo]

Rhythm Guitar 
      PM--------------|                                   PM--------------|                Repeat 4x
e||------------------------|-------------------------|-------------------------|----------------------------||
B||------------------------|-------------------------|-------------------------|----------------------------||
G||.-----------------------|-------------------------|-------------------------|---------------------------.||
D||.-----------------------|-------------------------|----------------------6--|--(6)--3h5p3--5--3---------.||
A||-5-------------------6--|--(6)--3h5p3-5--3--------|--5-------------------4--|--(4)---------------6--4--6-||
E||-3--3--3-3-3--3-3-3--4--|--(4)--------------6--4--|--3--3--3-3-3--3-3-3-----|--------------------------4-||
 
Lead Guitar (Solo)
          +     +            +     +       +            +       +       +       +        +       +  
e|---------------------------------------------------|----------------------------------------------------
B|--6b8===t18p6=t17~~--6b8===t15p6=t14~~p6=t12p8b10--|--t12p6h8-t12p6h8-t12p4h6-t12p4h6--t12p3h4-t12p3h4--
G|---------------------------------------------------|----------------------------------------------------
D|---------------------------------------------------|----------------------------------------------------
A|---------------------------------------------------|----------------------------------------------------
E|---------------------------------------------------|----------------------------------------------------

  +       +        +     +     +     +     +     +     +     +     +     +     +     +     +     +     +     
e|----------------|------------------------------------------------------------------------------------------|
B|t12p4h6-t12p4h6-|t13p6-t13p8-t13p8-t13p9-t13p8-t13p6-t13p4-t13p8-t13p6-t13p4-t13p3-t13p6-t13p4-t13p3-t13p1-|
G|----------------|------------------------------------------------------------------------------------------|
D|----------------|------------------------------------------------------------------------------------------|
A|----------------|------------------------------------------------------------------------------------------|
E|----------------|------------------------------------------------------------------------------------------|

   +     +     +     +     +     +     +     +     +     +     +     +
e|--------------------------------------------------------------------------|
B|-t13p3-t13p4-t13p3-t13p4-t13p6-t13p4-t13p6-t13p8-t13p6-t13p8-t13p9-t13p8--|
G|--------------------------------------------------------------------------|
D|--------------------------------------------------------------------------|
A|--------------------------------------------------------------------------|
E|--------------------------------------------------------------------------|

    +        +        +        +        +        +
e|---------------------------------------------------------|------------------19b21---19~~--|
B|--t13p8h12-t13p8h12-t13p8h12-t13p12h8-t15p8h12-t15p8h12--|--/18b20-18b20~~----------------|
G|---------------------------------------------------------|--------------------------------|
D|---------------------------------------------------------|--------------------------------|
A|---------------------------------------------------------|--------------------------------|
E|---------------------------------------------------------|--------------------------------|


e|--N19-16-15-16-19-16-15-16-19-16-15-16-19-16-15-16-19-16-15----------------------------------------------|
B|------------------------------------------------------------18-16-15-18-16-15-18-16-15-18-16-15-16b18~~--|
G|---------------------------------------------------------------------------------------------------------|
D|---------------------------------------------------------------------------------------------------------|
A|---------------------------------------------------------------------------------------------------------|
E|---------------------------------------------------------------------------------------------------------|

e|------------------------------------------|-------------------------------------------------21b23-21b23~~~~|
B|--16p15-----------------------------------|----------------------------------------------------------------|
G|--------17-15-----------------------------|-------------------------------------17-17-19-19----------------|
D|--------------18-17-15--------------------|-------------------------17-17-18-18----------------------------|
A|-----------------------18-17-15-----------|-------------15-15-17-17----------------------------------------|
E|--------------------------------18-16-15~-|-15-15-16-16----------------------------------------------------|

[Bass Solo]

      PM--------------|                                      PM-----------|
e|-------------------------|-------------------------|--------------------------------------------|--------|
B|-------------------------|-------------------------|--------------------------------------------|--------|
G|-------------------------|-------------------------|----------------------8--5h7p5--5--7--------|--------|
D|--7-------------------8--|-(8)--5h7p5--7--5--------|--7-------------------6---------------8--6--|--8--8--|
A|--5--5--5-5-5--5-5-5--6--|-(6)---------------8--6--|--5--5--5-5-5--5-5-5------------------------|--6--6--|
E|-------------------------|-------------------------|--------------------------------------------|--------|

      PM--------------|                                      PM-----------|
e|-------------------------|-------------------------|--------------------------------------------|---------|
B|-------------------------|-------------------------|--------------------------------------------|---------|
G|-------------------------|-------------------------|----------------------8--5h7p5--5--7--------|---------|
D|--7-------------------8--|-(8)--5h7p5--7--5--------|--7-------------------6---------------8--6--|--8--7\--|
A|--5--5--5-5-5--5-5-5--6--|-(6)---------------8--6--|--5--5--5-5-5--5-5-5------------------------|--6--5\--|
E|-------------------------|-------------------------|--------------------------------------------|---------|

[Drum Solo]



   PM--------|               PM--------|    PM---------|
e|-------------------------|---------------------------------------|
B|-------------------------|---------------------------------------|
G|------------5------------|------------5--------------------------|
D|--------7-6----6--6---6--|--------7-6---------------7--TR6(7)~~--|
A|--0-5-8--------4--4---4--|--0-5-8-----------4-5--8---------------|
E|-------------------------|---------------------------------------|

   PM--------|               PM--------|    PM---------|
e|-------------------------|-------------------------------|
B|-------------------------|-------------------------------|
G|------------5------------|------------5------------------|
D|--------7-6----6--6---6--|--------7-6---------------7--6-|
A|--0-5-8--------4--4---4--|--0-5-8-----------4-5--8-------|
E|-------------------------|-------------------------------|
 
                      PM--------------------|             PM         PM     PM------------|
e|---------|--------|----------------------------|------------------------|-----------------|
B|---------|--------|----------------------------|------------------------|-----------------|
G|---------|--------|----10---10---10---10---10--|------------------------|------------5----|
D|--9--10--|--7--8--|--8----8----8----7----7-----|--10-10----10--8-8---8--|--------7-6------|
A|--7--8---|--5--5--|----------------------------|--8--8--8--8---6-6-6-6--|--0-5-8-------4--|
E|---------|--------|----------------------------|------------------------|-----------------|

                      PM--------------------|             PM         PM   
e|---------|--------|----------------------------|------------------------|
B|---------|--------|----------------------------|------------------------|
G|---------|--------|----10---10---10---10---10--|------------------------|
D|--9--10--|--7--8--|--8----8----8----7----7-----|--10-10----10--8-8---8--|
A|--7--8---|--5--5--|----------------------------|--8--8--8--8---6-6-6-6--|
E|---------|--------|----------------------------|------------------------|

                            Let Ring-------|       
e||-------|-------|-------|---------------------|| Play 4x
B||-------|-------|-------|---------------------||
G||.------|-------|-------|-------10-----10----.||
D||.--9---|---7---|---10--|----8------7--------.||
A||---7---|---5---|---8---|---------------------||
E||-------|-------|-------|---------------------||

  PM----|      PM---|      PM----|  PM  PM----|  PM    PM---|      PM---|       PM--------------------------|
e|------------------------|--------------------------|-------------------------|-----------------------------|
B|------------------------|--------------------------|-------------------------|-----------------------------|
G|------------------------|--------------------------|-------------------------|-------10---10-------10---10-|
D|-------9--9--------9--9-|-------7---7--------7---7-|-------10-10-------10-10-|-8-8-8----8----7-7-7----7----|
A|-7-7-7-7--7--7-7-7-7--7-|-5-5-5-5-5-5--5-5-5-5-5-5-|-8-8-8-8--8--8-8-8-8--8--|-----------------------------|
E|------------------------|--------------------------|-------------------------|-----------------------------|

  PM----|      PM---|      PM----|  PM  PM----|        PM---|      PM---|       PM----------------------|
e|------------------------|--------------------------|-------------------------|--------------------------|
B|------------------------|--------------------------|-------------------------|--------------------------|
G|------------------------|--------------------------|-------------------------|--------------------------|
D|-------9--9--------9--9-|-------7---7--------7-7-7-|-------10-10-------10-10-|--------------------------|
A|-7-7-7-7--7--7-7-7-7--7-|-5-5-5-5-5-5--5-5-5-5-5-5-|-8-8-8-8--8--8-8-8-8--8--|-------8---8-------8---8--|
E|------------------------|--------------------------|-------------------------|-6-6-6---6---5-5-5---5----|

  Vibrato w/ bar-----------------------------------------------------------------------|
e|-------|---------|--------|--------|-------|---------|--------|--------|-------|--------|--------------|
B|-------|---------|--------|--------|-------|---------|--------|--------|--5~~~-|------6-|--8b10-8-6-8~-|
G|--9~~--|--7~~-10-|--14~~--|--10~~--|--9~~--|--7~~-10-|--14~~--|--15~~--|-------|--7~~---|--------------|
D|-------|---------|--------|--------|-------|---------|--------|--------|-------|--------|--------------|
A|--7~~--|--5~~-8--|--12~~--|--8~~~--|--7~~--|--5~~-8--|--12~~--|--13~~--|-------|--------|--------------|
E|-------|---------|--------|--------|-------|---------|--------|--------|-------|--------|--------------|

  Vibrato w/ bar--------------------------------------------|
e|------------|--12===~~--|--13===~~--|--17===~~--|--18===~~--|
B|--6~~--5~~--|--15b17~~--|--16b18~~--|--20b22~~--|--21b23~~--|
G|------------|-----------|-----------|-----------|-----------|
D|------------|-----------|-----------|-----------|-----------|
A|------------|-----------|-----------|-----------|-----------|
E|------------|-----------|-----------|-----------|-----------|

        PM--|  PM--|           PM--|  PM--|
e||-----------------------|------------------------|| Play 2x
B||-----------------------|------------------------||
G||.----------------------|-----------------------.||
D||.--9------9------9--7--|--9------9------9--10--.||
A||---7--7-7-7--7-7-7--5--|--7--7-7-7--7-7-7--8----||
E||-----------------------|------------------------||

e|-------------------------------|----------------------------|-----------------|--------------------------|
B|-------------------------------|----------------------------|-----------------|--------------------------|
G|--7-8-7~----9-7-9~----10-9-10~-|--12-10-12--10-9-10--9-7-9--|--7-6-7~---------|--------------------------|
D|---------0---------0-----------|----------------------------|---------0--8-7--|--8--7-5-7--5-3-5--3-2-3~-|
A|-------------------------------|----------------------------|-----------------|--------------------------|
E|-------------------------------|----------------------------|-----------------|--------------------------|

e|-------------------------------|----------------------------|-----------------|--------------------------|
B|-------------------------------|----------------------------|-----------------|--------------------------|
G|--7-8-7~----9-7-9~----10-9-10~-|--12-10-12--10-9-10--9-7-9--|--7-6-7~---------|--------------------------|
D|---------0---------0-----------|----------------------------|---------0--8-7--|--8--7-5-7--5-3-5--3-2-3--|
A|-------------------------------|----------------------------|-----------------|--------------------------|
E|-------------------------------|----------------------------|-----------------|--------------------------|

                                               PM--------|
e|------------------------|---------|--------|-------------------------||
B|------------------------|---------|--------|-------------------------||
G|------------------------|--2---8--|--7-----|------------5--6--6---6--||
D|------------------------|--2---8--|--7--6--|--------7-6----6--6---6--||
A|--7-5-7--5-3-5--3-1-4~--|--0---6--|--5--6--|--0-5-8--------4--4---4--||
E|------------------------|---------|-----4--|-------------------------||



************************************

| (n) Ghost note
| h   Hammer-on
| p   Pull-off
| t   Tapping
| b   Bend
| \   Slide down
| ~   Vibrato
| PM  Palm mute
| TR  Trill
| N   Tremolo Picking
| [n] Pinch Harmonic
| ==  Hold bend/note
|.
|.    Repeat
************************************

            
            
Suggest correction
Creating personal tab
Creating personal tab
You can edit any tab online and save it as your Personal.

You can edit, replace or remove any tab part or add personal notes – all changes will be seen only by you.

Personal tabs can be accessed anytime from any device, even offline.
Learn more »
Give kudos to tab author, rate the tab!
1 2 3 4 5
comments
print report bad tab
guest
You may want to rate the tab now too:
select rating
Wanna post a correction for this tab? Suggest correction