Oops, an error
Loading. Please wait.

Kill For Candy tab

397 views 9 this week
1 commentread comment
1 2 3 4 5
x 3
add to favorites
×
Save as Personal and add changes to this tab that will be seen only by you. Learn more ›
×
You can save this tab as Personal to edit and correct it or add notes. All changes will be seen only by you. Learn more »
launch autoscroll
font size
0
reset
how to read this tab
guitar tuner
edit
Autoscroll
slow
fast
+/-
esc
set tempo
stop
Author
Difficulty
About this tab version
My tab is the only version for this song so far, because the song is fairly new. I think it is accurate and I hope that it is seen as accurate by the users. Was this info helpful? Yes No
Hey guys, this is a pretty cool song. It's got serious Duran Duran vibes which
is great. No Doubt meets AFI, you can't really go wrong.

Not a great guitar song but I figured there'd be people wanting to jam this with 
their bands and stuff (like me) so yeah. Here goes!


[Intro]

e|--10---10-11---11-10-----|
B|--11---11-11---11-11-----|
G|--10---10-10---10-10-----| x2
D|-------------------------|
A|-------------------------|
E|-------------------------|


There's some delay going on here as well.

[Verse]
 
e|----------------|---------------------------|---------------------------|
B|----------------|---------------------------|---------------------------|
G|----------------|---------------------------|---------------------------|
D|----------------|---------------------------|---------------------------|
A|----------------|---------------------------|----------13-13-13-13--10--|
E|--8-8-8-8-8-8-8-|-15-15-15--13-13-13--11-11-|-6-6-6-6-------------------|

e|----------------|---------------------------|---------------------------|
B|----------------|---------------------------|---------------------------|
G|----------------|---------------------------|---------------------------|
D|----------------|---------------------------|---------------------------|
A|----------------|---------------------------|---------------------------|
E|--8-8-8-8-8-8-8-|-15-15-15--13-13-13--11-11-|-6-6-6-6--11-11-11-11--10--|

Repeat both lines 3 times, but on the 3rd time change the ending to this:
e|----------------|---------------------------|-------------------------|
B|----------------|---------------------------|-------------------------|
G|----------------|---------------------------|-------------------------|
D|----------------|---------------------------|-------------------------|
A|----------------|---------------------------|-------------------------|
E|--8-8-8-8-8-8-8-|-15-15-15--13-13-13--11-11-|-6-6-6-6--6-6-6-6-6-6-6\-|



[Chorus]

  Play each note 4 times, because I can't be bothered putting in every single note!

e|--------------------------------------|
B|--------------------------------------|
G|--------------------------10--12------|
D|--13--13--13--13--12------------------|
A|----------------------13--------------|
E|--------------------------------------|

e|--------------------------------------|
B|--------------------------------------|
G|--------------------------------------|
D|--13--13--13--13--12--12--------------|
A|--------------------------13--13------|
E|--------------------------------------|

e|--------------------------------------|
B|--------------------------------------|
G|--------------------------10--12------|
D|--13--13--13--13--12------------------|
A|----------------------13--------------|
E|--------------------------------------|

e|----------------------------|
B|----------------------------|
G|----------------------------|
D|--13--13--13--13--12--12----|
A|----------------------------|
E|----------------------------|



e|--10---10-11---11-10-----|
B|--11---11-11---11-11-----|
G|--10---10-10---10-10-----| x3
D|-------------------------|
A|-------------------------|
E|-------------------------|


[Verse 2]
Same as Verse 1 but only repeat 2 times instead of 3.

[Chorus 2]


[Bridge]

e|-----------------------|-----------------|-----------------|------------------|
B|-----------------------|-----------------|-----------------|------------------|
G|--8-------8-------8----|-7-----7-----7---|-7-----7-----7---|-7-----7-----7----|
D|----10-10---10-10---10-|---8-8---8-8---8-|---8-8---8-8---8-|---8-8---8-8---8--|
A|-----------------------|-----------------|-----------------|------------------|
E|-----------------------|-----------------|-----------------|------------------|

e|-----------------------|-----------------|-----------------|------------------|
B|-----------------------|---------6-------|---------6-------|---------6----8---|
G|--8-------8-------8----|--7----------7---|--7----------7---|--7---------------|
D|----10-10---10-10---10-|------8----------|------8----------|------8-----------|
A|-----------------------|-----------------|-----------------|------------------|
E|-----------------------|-----------------|-----------------|------------------|


e|---------8-------------|--------6--------|-----------------|------------------|
B|---8-----------8-------|---6--------6----|-------6---------|------------------|
G|-----------------------|-----------------|---7--------7----|--------7---------|
D|-----------------------|-----------------|-----------------|---8--------8-----|
A|-----------------------|-----------------|-----------------|------------------|
E|-----------------------|-----------------|-----------------|------------------|


[Chorus 3]

  Miss, you misunderstand me

e|--------------------------------------|
B|--------------------------------------|
G|--------------------------------------|
D|--13--13--13--13--12--12--------------|
A|--------------------------13--13------|
E|--------------------------------------|

e|--------------------------------------|
B|--------------------------------------|
G|--------------------------10--12------|
D|--13--13--13--13--12------------------|
A|----------------------13--------------|
E|--------------------------------------|

e|----------------------------|
B|----------------------------|
G|----------------------------|
D|--13--13--13--13--12--12----|
A|----------------------------|
E|----------------------------|

e|----------|
B|--10------|
G|--10------|
D|--10------|
A|--8-------|
E|----------|



Key:
\ = slide down
/ = slide up



            
            
Suggest correction
Creating personal tab
Creating personal tab
You can edit any tab online and save it as your Personal.

You can edit, replace or remove any tab part or add personal notes – all changes will be seen only by you.

Personal tabs can be accessed anytime from any device, even offline.
Learn more »
Give kudos to tab author, rate the tab!
1 2 3 4 5
comments
print report bad tab
1 comment total.
+1 reply
Bass-tabs-103 10 Apr 24, 2017 07:33 PM

Awesome tab. Well done! :)

guest
You may want to rate the tab now too:
select rating
Wanna post a correction for this tab? Suggest correction