Oops, an error
Loading. Please wait.

Backwaters Tab

version 1
version 1

Whole song

  • This tab is significantly different to the others.... Show more
3,823 views 6 this week
3 commentsread comments
1 2 3 4 5
x 3
add to favorites
launch autoscroll
font size
0
reset
how to read this tab
guitar tuner
Autoscroll
slow
fast
+/-
esc
set tempo
stop
Help us to improve Ultimate-Guitar.com Take our survey!
×
Author
Difficulty
Tuning
novice
D A D G B E
-----------------------------------------------------------------------------
                             BACKWATERS - Drenge
-----------------------------------------------------------------------------
Tabbed by: Josh w/ contributions from BarneyDD
E-mail: josh.whitehurst@googlemail.com
www.drenge.co.uk

Tuning: Drop D

No Drenge tabs on here yet so I thought I'd be the first. Fucking great band and
some pretty sick guitar work thanks to Eoin.

Thanks x

Intro & verses

e|---------------------------------------------------------------------------|
B|---------------------------------------------------------------------------|
G|---------------------------------------------------------------------------|
D|---------------------------------------------------------------------------|
A|---------------------------------------------------------------------------|
D|--0000000000000000000000000000000000--33333322222--------------------------|

Chorus

E|-------------------------------------------|
B|-------------------------------------------|
G|-------------------------------------------|
D|-12-12-x-x-x-12-12-x-x-x-10-x-3-x-10-x-3---|
A|-12-12-x-x-x-12-12-x-x-x-10-x-3-x-10-x-3---|  x4
D|-12-12-x-x-x-12-12-x-x-x-10-x-3-x-10-x-3---|




E|--------------------------------------------|
B|--------------------------------------------|
G|--------------------------------------------|
D|-12-12-x-x-x-12-12-x-x-x-10-x-3-5-3-5-7-5-0-|
A|-12-12-x-x-x-12-12-x-x-x-10-x-3-5-3-5-7-5-0-| back into verse
D|-12-12-x-x-x-12-12-x-x-x-10-x-3-5-3-5-7-5-0-|
Suggest correction
Give kudos to tab author, rate the tab!
1 2 3 4 5
comments
print report bad tab
3 comments total.
0 reply
BarneyDD 51 Oct 31, 2013 08:46 AM

I think chorus after your first part goes:

d-12-12-x-x-x-12-12-x-x-x-10-x-3-x-10-x-3
A-12-12-x-x-x-12-12-x-x-x-10-x-3-x-10-x-3 x4 then the last one goes:
D-12-12-x-x-x-12-12-x-x-x-10-x-3-x-10-x-3

d-12-12-x-x-x-12-12-x-x-x-10-x-3-5-3-5-7-5-0
A-12-12-x-x-x-12-12-x-x-x-10-x-3-5-3-5-7-5-0 back into verse
D-12-12-x-x-x-12-12-x-x-x-10-x-3-5-3-5-7-5-0

0 reply
tobiastobias 31 Jan 02, 2014 08:26 PM

i'm not sure but i think the intro/verse goes something like :
D-0000000000000030-000000000000030-3333333355555530-000003000000 (?)
agree with what you say about drenge though, ****ing awesome! best live band too

0 reply
robert.goodall. 69 Aug 03, 2014 12:39 AM

Lack of accuracy.

guest
You may want to rate the tab now too:
select rating
Wanna post a correction for this tab? Suggest correction