Oops, an error
Loading. Please wait.

Gun Crazy tab

by Drenge
139 views 1 this week
no commentswrite comment
1 2 3 4 5
1 last vote to show rating
add to favorites
×
Save as Personal and add changes to this tab that will be seen only by you. Learn more ›
×
You can save this tab as Personal to edit and correct it or add notes. All changes will be seen only by you. Learn more »
launch autoscroll
font size
0
reset
how to read this tab
guitar tuner
edit
Autoscroll
slow
fast
+/-
esc
set tempo
stop
[Intro]
e|---------------------------------------------------------------------------|
B|---------------------------------------------------------------------------|
G|---------------------------------------------------------------------------|
D|---------------------------------------------------------------------------| (x3)
A|-----2---3---2------2---3---3----------------------------------------------|
E|-0-0---0---0----0-0---0---0-3-0--------------------------------------------|

e|---------------------------------------------------------------------------|
B|---------------------------------------------------------------------------|
G|---------------------------------------------------------------------------|
D|-3-3-3--2-2-2--2h3h2--0-0-0------------------------------------------------|
A|-3-3-3--2-2-2--2h3h2--0-0-0------------------------------------------------|
E|-3-3-3--2-2-2--2h3h2--0-0-0------------------------------------------------|

[Verse]
e|---------------------------------------------------------------------------|
B|---------------------------------------------------------------------------|
G|---------------------------------------------------------------------------|
D|---------------------------------------------------------------------------| (x3)
A|-----2---3---2------2---3---3----------------------------------------------|
E|-0-0---0---0----0-0---0---0-3-0--------------------------------------------|

e|---------------------------------------------------------------------------|
B|---------------------------------------------------------------------------|
G|---------------------------------------------------------------------------|
D|-3-3-3--2-2-2--2h3h2--0-0-0------------------------------------------------|
A|-3-3-3--2-2-2--2h3h2--0-0-0------------------------------------------------|
E|-3-3-3--2-2-2--2h3h2--0-0-0------------------------------------------------|

e|---------------------------------------------------------------------------|
B|---------------------------------------------------------------------------|
G|---------------------------------------------------------------------------|
D|---------------------------------------------------------------------------| (x3)
A|-----2---3---2------2---3---3----------------------------------------------|
E|-0-0---0---0----0-0---0---0-3-0--------------------------------------------|

e|---------------------------------------------------------------------------|
B|---------------------------------------------------------------------------|
G|---------------------------------------------------------------------------|
D|-3-3-3--2-2-2--2h3h2--0-0-0--3-3--5-5--7-7--3--3-3--3--3-3-/-5-5-5---------|
A|-3-3-3--2-2-2--2h3h2--0-0-0--3-3--5-5--7-7--3--3-3--3--3-3-/-5-5-5---------|
E|-3-3-3--2-2-2--2h3h2--0-0-0--3-3--5-5--7-7--3--3-3--3--3-3-/-5-5-5---------|

e|---------------------------------------------------------------------------|
B|---------------------------------------------------------------------------|
G|---------------------------------------------------------------------------|
D|-3--3-3--3--3-3-/-5-5-5--0-------------------------------------------------|
A|-3--3-3--3--3-3-/-5-5-5--0-------------------------------------------------|
E|-3--3-3--3--3-3-/-5-5-5--0-------------------------------------------------|

[Chorus]
e|---------------------------------------------------------------------------|
B|---------------------------------------------------------------------------|
G|---------------------------------------------------------------------------|
D|-0-0-0-0-0-0--3-3-3--0-0-0-0-0-0-0--3-3-3-3--2-2-2-2-2--0-0-0-0-0-0--------|
A|-0-0-0-0-0-0--3-3-3--0-0-0-0-0-0-0--3-3-3-3--2-2-2-2-2--0-0-0-0-0-0--------|
E|-0-0-0-0-0-0--3-3-3--0-0-0-0-0-0-0--3-3-3-3--2-2-2-2-2--0-0-0-0-0-0--------|

e|---------------------------------------------------------------------------|
B|---------------------------------------------------------------------------|
G|---------------------------------------------------------------------------|
D|-0-0-0-0-0-0--3h5h3--0-0-0-0-0-0-0--3-3-3-3--2-2-2-2-2--0-0-0-0-0-0-0-0----|
A|-0-0-0-0-0-0--3h5h3--0-0-0-0-0-0-0--3-3-3-3--2-2-2-2-2--0-0-0-0-0-0-0-0----|
E|-0-0-0-0-0-0--3h5h3--0-0-0-0-0-0-0--3-3-3-3--2-2-2-2-2--0-0-0-0-0-0-0-0----|

[Bridge]
e|---------------------------------------------------------------------------|
B|---------------------------------------------------------------------------|
G|---------------------------------------------------------------------------|
D|-0-0---77-66-33---0-0---77-66/10-10-10-------------------------------------|
A|-0-0--------------0-0------------------------------------------------------|
E|-0-0--------------0-0------------------------------------------------------|

e|---------------------------------------------------------------------------|
B|---------------------------------------------------------------------------|
G|---------------------------------------------------------------------------|
D|-0-0---77-66-33---0-0---77-66-10b12br--------------------------------------|
A|-0-0--------------0-0------------------------------------------------------|
E|-0-0--------------0-0------------------------------------------------------|

e|---------------------------------------------------------------------------|
B|---------------------------------------------------------------------------|
G|---------------------------------------------------------------------------|
D|-0-0---77-66-33---0-0---77-66/10-10-10-------------------------------------|
A|-0-0--------------0-0------------------------------------------------------|
E|-0-0--------------0-0------------------------------------------------------|

e|---------------------------------------------------------------------------|
B|---------------------------------------------------------------------------|
G|---------------------------------------------------------------------------|
D|-0-0---77-66-33---0-0---77-66----------------------------------------------|
A|-0-0--------------0-0------------------------------------------------------|
E|-0-0--------------0-0----------10h12h10h12---------------------------------|

e|---------------------------------------------------------------------------|
B|---------------------------------------------------------------------------|
G|---------------------------------------------------------------------------|
D|-0-0--7-7-7--6-6-6--3-3-3-3---0-0--7-7-7--6-6-6-/-10-10-10-----------------|
A|-0-0--7-7-7--6-6-6--3-3-3-3---0-0--7-7-7--6-6-6-/-10-10-10-----------------|
E|-0-0--7-7-7--6-6-6--3-3-3-3---0-0--7-7-7--6-6-6-/-10-10-10-----------------|

e|---------------------------------------------------------------------------|
B|---------------------------------------------------------------------------|
G|---------------------------------------------------------------------------|
D|-0-0--7-7-7--6-6-6--3-3-3-3---0-0--7-7-7--6-6-6-/-10h12h10-----------------|
A|-0-0--7-7-7--6-6-6--3-3-3-3---0-0--7-7-7--6-6-6-/-10h12h10-----------------|
E|-0-0--7-7-7--6-6-6--3-3-3-3---0-0--7-7-7--6-6-6-/-10h12h10-----------------|

e|---------------------------------------------------------------------------|
B|---------------------------------------------------------------------------| (x4)
G|---------------------------------------------------------------------------|
D|-0-pm------0-0-10-0-0-10-0-0-10-0-0-10-0-0-9h10-pm-------------------------|
A|-0-pm-x28--0-0-10-0-0-10-0-0-10-0-0-10-0-0-9h10-pm-------------------------|
E|-0-pm------0-0-10-0-0-10-0-0-10-0-0-10-0-0-9h10-pm-------------------------|

[Chorus]
e|---------------------------------------------------------------------------|
B|---------------------------------------------------------------------------|
G|---------------------------------------------------------------------------|
D|-0-0-0-0-0-0--3-3-3--0-0-0-0-0-0-0--3-3-3-3--2-2-2-2-2--0-0-0-0-0-0--------|
A|-0-0-0-0-0-0--3-3-3--0-0-0-0-0-0-0--3-3-3-3--2-2-2-2-2--0-0-0-0-0-0--------|
E|-0-0-0-0-0-0--3-3-3--0-0-0-0-0-0-0--3-3-3-3--2-2-2-2-2--0-0-0-0-0-0--------|

e|---------------------------------------------------------------------------|
B|---------------------------------------------------------------------------|
G|---------------------------------------------------------------------------|
D|-0-0-0-0-0-0--3h5h3--0-0-0-0-0-0-0--3-3-3-3--2-2-2-2-2--0-0-0-0-0-0-0-0----|
A|-0-0-0-0-0-0--3h5h3--0-0-0-0-0-0-0--3-3-3-3--2-2-2-2-2--0-0-0-0-0-0-0-0----|
E|-0-0-0-0-0-0--3h5h3--0-0-0-0-0-0-0--3-3-3-3--2-2-2-2-2--0-0-0-0-0-0-0-0----|



************************************

| h   Hammer-on
| /   Slide up
| b   Bend
| br  Bend release
| x   Dead note
  

************************************

            
            
Suggest correction
Creating personal tab
Creating personal tab
You can edit any tab online and save it as your Personal.

You can edit, replace or remove any tab part or add personal notes – all changes will be seen only by you.

Personal tabs can be accessed anytime from any device, even offline.
Learn more »
Give kudos to tab author, rate the tab!
1 2 3 4 5
comments
print report bad tab
guest
You may want to rate the tab now too:
select rating
Wanna post a correction for this tab? Suggest correction