Oops, an error
Loading. Please wait.

Have You Forgotten My Name tab

by Drenge
319 views 6 this week
no commentswrite comment
1 2 3 4 5
3 more votes to show rating
add to favorites
×
Save as Personal and add changes to this tab that will be seen only by you. Learn more ›
×
You can save this tab as Personal to edit and correct it or add notes. All changes will be seen only by you. Learn more »
launch autoscroll
font size
0
reset
how to read this tab
guitar tuner
edit
Autoscroll
slow
fast
+/-
esc
set tempo
stop
-------------------------------------
 Drenge - Have You Forgotten My Name
-------------------------------------
Tabbed by Cole Y.
Tuning: Drop D (D A D G B E)
Album: Undertow
Resources: https://www.youtube.com/watch?v=c7KgTPTVKk8
Additional information: I believe some of this song just has one guitar track, but
guitar 2 details fills and what the second guitar may be playing.

[Intro]

Guitar 1
e|--------------------------------------------------------------------------|
B|--------------------------------------------------------------------------|
G|--------------------------------------------------------------------------|
D|-0-0-0-0-0-0-0-0-3-3-3-3-5-5-5-5-8-8-8-8-8-8-8-8-10-10-10-10-10-10-10-10--|
A|-0-0-0-0-0-0-0-0-3-3-3-3-5-5-5-5-8-8-8-8-8-8-8-8-10-10-10-10-10-10-10-10--|
D|-0-0-0-0-0-0-0-0-3-3-3-3-5-5-5-5-8-8-8-8-8-8-8-8-10-10-10-10-10-10-10-10--| x3

Guitar 2
e|---------------------------------------------------------------------------|
B|---------------------------------------------------------------------------|
G|-------5---------------3---3---2-------------------------------------------|
D|---------------------------------------------------------------------------|
A|---------------------------------------------------------------------------|
D|---------------------------------------------------------------------------| x3

Guitar 1
e|--------------------------------------------------------------------------|
B|--------------------------------------------------------------------------|
G|--------------------------------------------------------------------------|
D|-0-0-0-0-0-0-0-0-3-3-3-3-5-5-5-5-8-8-8-8-8-8-8-8-10-10-10-10-10-10-10-10--|
A|-0-0-0-0-0-0-0-0-3-3-3-3-5-5-5-5-8-8-8-8-8-8-8-8-10-10-10-10-10-10-10-10--|
D|-0-0-0-0-0-0-0-0-3-3-3-3-5-5-5-5-8-8-8-8-8-8-8-8-10-10-10-10-10-10-10-10--| x1

Guitar 2
e|---------------------------------------------------------------------------|
B|---------------------------------------------------------------------------|
G|------2-----------0-0------------------------------------------------------|
D|-0-----------------------3\2----------------3-3--0-------------------------|
A|---------------------------------------------------------------------------|
D|---------------------------------------------------------------------------| x1


[Verse]

Guitar 1
e|--------------------------------------------------------------------------|
B|--------------------------------------------------------------------------|
G|--------------------------------------------------------------------------|
D|-0-0-0-0-0-0-0-0-3-3-3-3-5-5-5-5-8-8-8-8-8-8-8-8-10-10-10-10-10-10-10-10--|
A|-0-0-0-0-0-0-0-0-3-3-3-3-5-5-5-5-8-8-8-8-8-8-8-8-10-10-10-10-10-10-10-10--|
D|-0-0-0-0-0-0-0-0-3-3-3-3-5-5-5-5-8-8-8-8-8-8-8-8-10-10-10-10-10-10-10-10--| x4

Guitar 2
e|--------------------------------------------------------------------------|
B|--------------------------------------------------------------------------|
G|--------------------------------------------------------------------------|
D|--------------------------------------------------------------------------|
A|--------------------------------------------------------------------------|
D|-0-0-0-0-0-0-0-0-3-3-3-3-5-5-5-5-8-8-8-8-8-8-8-8-10-10-10-10-10-10-10-10--| x4


[Chorus]

Guitar 1
e|--------------------------------------------------------------------------|
B|--------------------------------------------------------------------------|
G|--------------------------------------------------------------------------|
D|-8-8-8-8-8-8-8-8-10-10-10-10-10-10-10-10-0-0-0-0-0-0-0-0-0-0-0-0-0-0-0-0--|
A|-8-8-8-8-8-8-8-8-10-10-10-10-10-10-10-10-0-0-0-0-0-0-0-0-0-0-0-0-0-0-0-0--|
D|-8-8-8-8-8-8-8-8-10-10-10-10-10-10-10-10-0-0-0-0-0-0-0-0-0-0-0-0-0-0-0-0--| x3

e|--------------------------------------------------------------------------|
B|--------------------------------------------------------------------------|
G|-----3-------3----------5----------5--------------------------------------|
D|---3---3---3---3-----5----5-----5-----5--0-0-3-0--3h5p3---0-0-3-0--3h5p3--|
A|-1-------1--------3----------3--------------------------------------------|
D|--------------------------------------------------------------------------| x3

Guitar 1
e|-------------------------------------------------------------------|
B|-------------------------------------------------------------------|
G|-------------------------------------------------------------------|
D|-8-8-8-8-8-8-8-8-10-10-10-10-10-10-10-10-10-10-10-10-10-10-10-10---|
A|-8-8-8-8-8-8-8-8-10-10-10-10-10-10-10-10-10-10-10-10-10-10-10-10---|
D|-8-8-8-8-8-8-8-8-10-10-10-10-10-10-10-10-10-10-10-10-10-10-10-10---| x1

e|-------------------------------------------------------------------|
B|-------------------------------------------------------------------|
G|-----3-------3----------5-----------5-----------5-----------5------|
D|---3---3---3---3-----5-----5-----5-----5-----5-----5-----5-----5---|
A|-1-------1--------3-----------3-----------3-----------3------------|
D|-------------------------------------------------------------------| x1


[Post-Chorus]

Guitar 1
e|--------------------------------------------------------------------------|
B|--------------------------------------------------------------------------|
G|--------------------------------------------------------------------------|
D|-0-0-0-0-0-0-0-0-3-3-3-3-5-5-5-5-8-8-8-8-8-8-8-8-10-10-10-10-10-10-10-10--|
A|-0-0-0-0-0-0-0-0-3-3-3-3-5-5-5-5-8-8-8-8-8-8-8-8-10-10-10-10-10-10-10-10--|
D|-0-0-0-0-0-0-0-0-3-3-3-3-5-5-5-5-8-8-8-8-8-8-8-8-10-10-10-10-10-10-10-10--| x2

Guitar 2
e|--------------------------------------------------------------------------|
B|--------------------------------------------------------------------------|
G|--------------------------------------------------------------------------|
D|-0-----------------------0h3-----3\2-----------------------2/5------5\3---|
A|--------------------------------------------------------------------------|
D|--------------------------------------------------------------------------|

e|--------------------------------------------------------------------------|
B|--------------------------------------------------------------------------|
G|--------------------------------------------------------------------------|
D|---------------------------3-----3\2-----------------------2\0------------|
A|--------------------------------------------------------------------------|
D|--------------------------------------------------------------------------|


[Bridge]

Guitar 1
e|--------------------------------------------------------------------------|
B|--------------------------------------------------------------------------|
G|--------------------------------------------------------------------------|
D|-8-8-8-8-8-8-8-8-10-10-10-10-10-10-10-10-0-0-3-0---3h5p3-0-0-3-0---3h5p3--|
A|-8-8-8-8-8-8-8-8-10-10-10-10-10-10-10-10-0-0-0-0---0-----0-0-0-0---0------|
D|-8-8-8-8-8-8-8-8-10-10-10-10-10-10-10-10-0-0-0-0---0-----0-0-0-0---0------| x3

Guitar 2
e|---------------------------------------------------------------------------|
B|---------------------------------------------------------------------------|
G|-------5---------------3---3---2-------------------------------------------|
D|-0-------------------------------------------------------------------------|
A|---------------------------------------------------------------------------|
D|---------------------------------------------------------------------------| x3

Guitar 1
e|--------------------------------------------------------------------------|
B|--------------------------------------------------------------------------|
G|--------------------------------------------------------------------------|
D|-8-8-8-8-8-8-8-8-10-10-10-10-10-10-10-10-0-0-3-0---3h5p3-0-0-3-0---3h5p3--|
A|-8-8-8-8-8-8-8-8-10-10-10-10-10-10-10-10-0-0-0-0---0-----0-0-0-0---0------|
D|-8-8-8-8-8-8-8-8-10-10-10-10-10-10-10-10-0-0-0-0---0-----0-0-0-0---0------| x1

Guitar 2
e|---------------------------------------------------------------------------|
B|---------------------------------------------------------------------------|
G|------2-----------0-0------------------------------------------------------|
D|-0-----------------------3\2----------------2-2--0-------------------------|
A|---------------------------------------------------------------------------|
D|---------------------------------------------------------------------------| x1


[Outro]

Guitar 1
e|--------------------------------------|
B|--------------------------------------|
G|--------------------------------------|
D|--------------------------------------|
A|--------8h10----8----7--------3----0--|
D|-0--0-0---------8----7--------3----0--| x2

Guitar 2
e|--------------------------------------|
B|--------------------------------------|
G|--------------------------------------|
D|-0------------------------------------|
A|--------------------------------------|
D|--------------------------------------|

e|--------------------------------------|
B|--------------------------------------|
G|--------------------------------------|
D|-x------------------------------------|
A|--------------------------------------|
D|--------------------------------------|

Guitar 1
e|--------------------------------------|
B|--------------------------------------|
G|--------------------------------------|
D|-0-0-0-0-0-0-0-0-8-8-8-8-10-10-10-10--|
A|-0-0-0-0-0-0-0-0-8-8-8-8-10-10-10-10--|
D|-0-0-0-0-0-0-0-0-8-8-8-8-10-10-10-10--| x4

Guitar 2
e|--------------------------------------|
B|--------------------------------------|
G|--------------------------------------|
D|---0-----------------8---------10-----|
A|--------8h10-------8---8----10----10--|
D|-0---0-----------8-------10-----------| x4

Guitar 1
e|----------------------------------------|
B|----------------------------------------|
G|----------------------------------------|
D|-8-8-8-8-10-10-10-10-0-0-0-0-0-0-0-0----|
A|-8-8-8-8-10-10-10-10-0-0-0-0-0-0-0-0----|
D|-8-8-8-8-10-10-10-10-0-0-0-0-0-0-0-0----|

e|----------------------------------------|
B|----------------------------------------|
G|----------------------------------------|
D|-8-8-8-8-10-10-10-10-0-0-0-0-0-0-0-0----|
A|-8-8-8-8-10-10-10-10-0-0-0-0-0-0-0-0----|
D|-8-8-8-8-10-10-10-10-0-0-0-0-0-0-0-0----|    x3

Guitar 2
e|----------------------------------------|
B|----------------------------------------|
G|----------------------------------------|
D|----------------------------------------|
A|----------------------------------------|
D|-(8)br7b(8)-(10)br9b(10)-(7)br6b(7)-----|

e|----------------------------------------|
B|----------------------------------------|
G|----------------------------------------|
D|----------------------------------------|
A|----------------------------------------|
D|-(8)br7b(8)-(10)br9b(10)-(12)br11b(11)--|    x3

Guitar 1
e|--------------------------------------|
B|--------------------------------------|
G|--------------------------------------|
D|-8-8-8-8-10-10-10-10-0-0-0-0-0-0-0-0--|
A|-8-8-8-8-10-10-10-10-0-0-0-0-0-0-0-0--|
D|-8-8-8-8-10-10-10-10-0-0-0-0-0-0-0-0--|

e|--------------------------------------|
B|--------------------------------------|
G|--------------------------------------|
D|-8-8-8-8-10-10-10-10-12---------------|
A|-8-8-8-8-10-10-10-10-12---------------|
D|-8-8-8-8-10-10-10-10-12---------------|    x1

Guitar 2
e|--------------------------------------|
B|--------------------------------------|
G|--------------------------------------|
D|--------------------------------------|
A|--------------------------------------|
D|-(8)br7b(8)-(10)br9b(10)-(7)br6b(7)---|

e|--------------------------------------|
B|--------------------------------------|
G|--------------------------------------|
D|--------------------------------------|
A|-------------------------12-----------|
D|-(8)br7b(8)-(10)br9b(10)--------------|    x1


************************************

| x   Dead note
| h   Hammer-on
| p   Pull-off
| b   Bend
| br  Bend release
| /   Slide up
| \   Slide down

************************************

            
            
Suggest correction
Creating personal tab
Creating personal tab
You can edit any tab online and save it as your Personal.

You can edit, replace or remove any tab part or add personal notes – all changes will be seen only by you.

Personal tabs can be accessed anytime from any device, even offline.
Learn more »
Give kudos to tab author, rate the tab!
1 2 3 4 5
comments
print report bad tab
guest
You may want to rate the tab now too:
select rating
Wanna post a correction for this tab? Suggest correction