Oops, an error
Loading. Please wait.

Nothing Tab

5,107 views 1 this week
no commentswrite comment
1 2 3 4 5
x 7
add to favorites
launch autoscroll
font size
0
reset
how to read this tab
guitar tuner
×
Best way to learn
"Nothing"
Autoscroll
slow
fast
+/-
esc
set tempo
stop
Author
Difficulty
Tuning
  follow
novice
D A D G B E
Tuning: Drop D

[Intro]
e|---------------------------------------------------------------------------|
B|---------------------------------------------------------------------------|
G|---------------------------------------------------------------------------|
D|-0-5-7--0-5-7b8br7-5--2---0-5-5--0-4-4--0-2-4b5br4-0-5-7--0-5-7b8br7-5-----|
A|-0-5-7--0-5-7b8br7-5--2---0-5-5--0-4-4--0-2--------0-5-7--0-5-7b8br7-5-----|
D|-0-5-7--0-5-7b8br7-5--2---0-5-5--0-4-4--0-2--------0-5-7--0-5-7b8br7-5-----|

e|---------------------------------------------------------------------------|
B|---------------------------------------------------------------------------|
G|---------------------------------------------------------------------------|
D|-2---0-5-5--0-4-4--0-2-0-2--0--2-------------------------------------------|
A|-2---0-5-5--0-4-4--0-2-0-2--0--2-------------------------------------------|
D|-2---0-5-5--0-4-4--0-2-0-2--0--2-------------------------------------------|

[Verse 1]
e|---------------------------------------------------------------------------|
B|---------------------------------------------------------------------------|
G|---------------------------------------------------------------------------|
D|-0---5--0-2---0---5--0-2---0---5--0-2---0---5-0-2--------------------------|
A|-0---5--0-2---0---5--0-2---0---5--0-2---0---5-0-2--------------------------|
D|-0---5--0-2---0---5--0-2---0---5--0-2---0---5-0-2--------------------------|
  PM---------------------------------------------------

[Verse 2] 
(#Take me to the valley in the south...#)
e|---------------------------------------------------------------------------|
B|---------------------------------------------------------------------------|
G|---------------------------------------------------------------------------|
D|-0---5-0-2---0-4-5-x-x-0--2---0---5-0-2--0-4-5--0-5-7----------------------|
A|-0---5-0-2---0-4-5-x-x-0--2---0---5-0-2--0-4-5--0-5-7----------------------|
D|-0---5-0-2---0-4-5-x-x-0--2---0---5-0-2--0-4-5--0-5-7----------------------|
  PM---------------------------------------------------

[Verse 3]
e|--------------------------------------------------------------|
B|--------------------------------------------------------------|
G|--------------------------------------------------------------|
D|-0-2-0-2-0-4-5--0-5-7--0-7-9---0-2-0-2-0-4-5--0-5-7--0-9-5----|
A|-0-2-0-2-0-4-5--0-5-7--0-7-9---0-2-0-2-0-4-5--0-5-7--0-9-5----|
D|-0-2-0-2-0-4-5--0-5-7--0-7-9---0-2-0-2-0-4-5--0-5-7--0-9-5----|
        
e|---------------------------------------------------------------------------|
B|---------------------------------------------------------------------------|
G|-----------------------------------------9-7--x-7-6------------------------|
D|-0-2-0-2-0-4-5--0-5-7--0-7-9---0-2-0-2-0-9-7--x-7-6--x-7-5---2-------------|
A|-0-2-0-2-0-4-5--0-5-7--0-7-9---0-2-0-2-0-7-5--x-5-4--x-7-5---2-------------|
D|-0-2-0-2-0-4-5--0-5-7--0-7-9---0-2-0-2-0-------------x-7-5---2-------------|

[Verse 3]
e|---------------------------------------------------------------------------|
B|---------------------------------------------------------------------------|
G|---------------------------------------------------------------------------|
D|-0---5--0-2---0---5--0-2---0---5--0-2---0---5-0-2--------------------------|
A|-0---5--0-2---0---5--0-2---0---5--0-2---0---5-0-2--------------------------|
D|-0---5--0-2---0---5--0-2---0---5--0-2---0---5-0-2--------------------------|
  PM---------------------------------------------------

[Verse 4]
e|---------------------------------------------------------------------------|
B|---------------------------------------------------------------------------|
G|---------------------------------------------------------------------------|
D|-0---5-0-2---0-4-5-x-x-0--2---0---5-0-2--x-4-5--x-5-7----------------------|
A|-0---5-0-2---0-4-5-x-x-0--2---0---5-0-2--x-4-5--x-5-7----------------------|
D|-0---5-0-2---0-4-5-x-x-0--2---0---5-0-2--x-4-5--x-5-7----------------------|
  PM---------------------------------------------------
        
[Verse 5] (let the power chords ring out, it sounds best with a bit of crunch and distortion).
e|---------------------------------------------------------------------------|
B|---------------------------------------------------------------------------|
G|---------------------------------------------------------------------------|
D|-0---5--0-2---0---5--0-2---0---5--0-2---0---5-0-2--------------------------|
A|-0---5--0-2---0---5--0-2---0---5--0-2---0---5-0-2--------------------------|
D|-0---5--0-2---0---5--0-2---0---5--0-2---0---5-0-2--------------------------|
                                                  ^
                                                (PM this chord)

[Verse 6]
e|---------------------------------------------------------------------------|
B|---------------------------------------------------------------------------|
G|---------------------------------------------------------------------------|
D|-0---5-0-2---0-4-5-x-x-0--2---0---5-0-2--0-4-5--0-5-7----------------------|
A|-0---5-0-2---0-4-5-x-x-0--2---0---5-0-2--0-4-5--0-5-7----------------------|
D|-0---5-0-2---0-4-5-x-x-0--2---0---5-0-2--0-4-5--0-5-7----------------------|
  PM---------------------------------------------------

[Solo]
e|---------------------------------------------------------------------------
B|---------------------------------------------------------------------------
G|---------------------------------------------------------------------------
D|--4b5br4-0-2----------0-2---4b5br4-0-2-0-0-0-5-0-2-------------------------
A|---------0-2---4b5br4-0-2----------0-2-0-0-0-5-0-2-------------------------
D|---------0-2----------0-2----------0-2-0-0-0-5-0-2-------------------------

e|---------------------------------------------------------------------------|
B|---------------------------------------------------------------------------|
G|---------------------------------------------------------------------------|
D|--5/7-0-2-------0-2---5/7-0-2-0-0-0-5-0-2----------------------------------|
A|------0-2---5/7-0-2-------0-2-0-0-0-5-0-2----------------------------------|
D|------0-2-------0-2-------0-2-0-0-0-5-0-2----------------------------------|

[Breakdown]
e|---------------------------------------------------------------------------|
B|---------------------------------------------------------------------------|
G|---------------------------------------------------------------------------| (Play x2 palm muted, then
D|---2-2-2---2-2-2---2-2-2-0-0-0-5-0-2---------------------------------------|  x6 un-palm muted)
A|---2-2-2---2-2-2---2-2-2-0-0-0-5-0-2---------------------------------------|
D|---2-2-2---2-2-2---2-2-2-0-0-0-5-0-2---------------------------------------|
  PM----------------------------------
        
(#Peel off my skin, the flesh from my bone...#)
e|---------------------------------------------------------------------------|
B|---------------------------------------------------------------------------|
G|---------------------------------------------------------------------------| (x4)
D|--2--2--2--2-2-2--2--2--2-2-2--2--2--2-2-2--2-0-0-0-2----------------------|  
A|--2--2--2--2-2-2--2--2--2-2-2--2--2--2-2-2--2-0-0-0-2----------------------|
D|--2--2--2--2-2-2--2--2--2-2-2--2--2--2-2-2--2-0-0-0-2----------------------|



************************************

| b   Bend
| br  Bend release
| PM  Palm mute
| x   Dead note
| /   Slide up

************************************
Suggest correction
comments
print report bad tab
guest
You may want to rate the tab now too:
select rating
Wanna post a correction for this tab? Suggest correction