Oops, an error
Loading. Please wait.

Jul I Angora Chords

version 2
version 2

Whole song

1,547 views 1 this week
no commentswrite comment
1 2 3 4 5
please rate
add to favorites
launch autoscroll
font size
0
reset
transpose
0
reset
simplify chords
display chords
guitar tuner
Autoscroll
slow
fast
+/-
esc
set tempo
stop
Help us to improve Ultimate-Guitar.com Take our survey!
×
Author
Difficulty
intermediate
   _______________________
  / Drengene fra Angora  /  Dette må siges at være en moderne juleklassiker!
 / Jul i Angora         /  
/______________________/  Såh, God Jul! :D



 Forspil:
| Eb | Bb | Dm | Gm |

| Eb | Bb F | Bb | Bb |



 Vers:
||: Bb | Dm | Eb | Eb/D |

| Cm | Bb | F | F7 :||



 Bro:
| Dm Co | Bb Ao | Gm | Gm |

| Eb Bb/D | Cm Gm | F | F7 |



 OmkvæD:
||: Eb | Bb | D7 | Gm |

(t.5)     1.
| Eb | F | Bb Bbsus4 | Bb Bb7 :||

 2.
| Bb | Bb |



 Vers

 Bro

 OmkvæD

 Bro med Landmandsønnerne (1x Bro + 2.halvdel af Bro)



 Sidste Omkvæd:
(forlænges fra takt 5 i 2. volte)

||: Eb | F | Gm | Gm :||

| Eb | F | F7 | Bb | Bb ...




 AKKORDER
************
(med Capo på 3.bånd,
 el-guitaren på pladen spiller power-akkorder)


 Forspil:
   C     G     Bm    Em    C     G   D     G     G
|--0--|--3--|--2--|--0--|--0--|--3---2--|--3--|--3--|
|--1--|--0--|--3--|--0--|--1--|--0---3--|--0--|--0--|
|--0--|--0--|--4--|--0--|--0--|--0---2--|--0--|--0--|
|--2--|--0--|--4--|--2--|--2--|--0---0--|--0--|--0--|
|--3--|--2--|--2--|--2--|--3--|--2------|--2--|--2--|
|-----|--3--|-----|--0--|-----|--3------|--3--|--3--|


 Vers:
     G     Bm    C    C/B    Am    G     F     F7
||---3--|--2--|--0--|--0--|--0--|--3--|--2--|--2---||
||o--0--|--3--|--1--|--1--|--1--|--0--|--3--|--1--o||
||---0--|--4--|--0--|--0--|--2--|--0--|--2--|--2---||
||---0--|--4--|--2--|--2--|--2--|--0--|--0--|--0---||
||o--2--|--2--|--3--|--2--|--0--|--2--|-----|-----o||
||---3--|-----|-----|-----|-----|--3--|-----|------||


 Bro:
   Bm  Ao    G  F#o    Em    Em    C  G/B    Am  Em    D     D7
|--2---2--|--3---2--|--3--|--0--|--0---3--|--0---0--|--2--|--2--|
|--3---1--|--0---1--|--0--|--0--|--1---0--|--1---0--|--3--|--1--|
|--4---2--|--0---2--|--0--|--0--|--0---0--|--2---0--|--2--|--2--|
|--4---1--|--0---1--|--2--|--2--|--2---0--|--2---2--|--0--|--0--|
|--2---0--|--2---x--|--2--|--2--|--3---2--|--0---2--|-----|-----|
|---------|--3---2--|--0--|--0--|---------|------0--|-----|-----|


 Omkvæd:                               1.                    2.
     C     G     B7    Em    C     D     G Gsus4   G   G7      G     G
||---0--|--3--|--2--|--0--|--0--|--2--|--3---3--|--3---1---||--3--|--3--|
||o--1--|--0--|--0--|--0--|--1--|--3--|--0---1--|--3---0--o||--3--|--3--|
||---0--|--0--|--2--|--0--|--0--|--2--|--0---0--|--0---0---||--0--|--0--|
||---2--|--0--|--1--|--2--|--2--|--0--|--0---0--|--0---0---||--0--|--0--|
||o--3--|--2--|--2--|--2--|--3--|-----|--x---x--|--2---2--o||--2--|--2--|
||------|--3--|-----|--0--|-----|-----|--3---3--|--3---3---||--3--|--3--|
                          (t.5)

 Sidste Omkvæd:
    (t.5)
        C     D     Em    Em      C     D     D7    G     G
---||---0--|--2--|--0--|--0---||--0--|--2--|--2--|--3--|--3--:
---||o--1--|--3--|--0--|--0--o||--1--|--3--|--1--|--0--|--3--:
---||---0--|--2--|--0--|--0---||--0--|--2--|--2--|--0--|--0--:
---||---2--|--0--|--2--|--2---||--2--|--0--|--0--|--0--|--0--:
---||o--3--|-----|--2--|--2--o||--3--|-----|-----|--2--|--2--:
---||------|-----|--0--|--0---||-----|-----|-----|--3--|--3--:




 TEKST
*********
Simon:     Så det jul, det' tid til glögg og and
           Sneen daler i Angoras land
Henrik:    Jeg skal hjem og pudse mit klaver (så lyder'd godt)
           Mit talent er nog' der imponerer, ah?

Simon:     Og Kåre, du har drukket juleøller i en mængde, der er ekstrem
           (Kåre... Kåre?)
Kåre:      Nemlig ja, ja nemlig ja, ja nemlig ja, det' ingen problem

Alle:      Nu' det jul i Angora
Henning:   Så skal vi saddanegme hjem til moar (...eller mutter)
Alle:      Ja, det skal vi da, men også hjem til far
           Nu' det jul i Angora
Baune:     Så skal vi fandme ud og score
Alle:      Nej, det skal vi ik', vi skal danse om et træ

Russere:   Hvot gul mnji vu Vlad i Gagarin
Baune:     (Hold da kæft!) Hva' er't I sir' I fe'e russersvin!
           (Total øøh... perkeragtig)
Bugge & Ronald: Simon er en dum, dum, dum, dum én (Hva'? - Prettyface!)
Simon:     Styr jer, grydehår og tændstikben
Bugge & Ronald: (AARGH! Han kaldt' dig for tændstikben!)

Solo Jan:  Jeg har sunget sange og lavet mad med men'skelort i (hmm...)
Dan:       Jeg har... (nej, det fungerer overhovedet ik', nej...)

Alle:      Nu' det jul i Angora
Solo Jan:  Vi skal ha' mad med lort og porrer
Alle:      Nej, det skal vi ik', vi skal ha' juleand
           Nu' det jul i Angora
Pim:       Uj, my mother is a slutty whore
Alle:      Ja, det ved vi godt, det' ikke vores problem
Pim:       (No, it's no problem...)

Landmandssønnerne: Goddaw, far!
Far:       Goddaw, Ryan. Goddaw, Flemming.
           Er I kommet for at hjælpe mig med at pynte juletræet?
Landmandssønnerne: Næ, vi' såm' bare kommet med et bette julegave til dig
           Ja, glædelig jul, din gamle idiot
Kåre:      (Nå...)

Alle:      Nu' det jul i Angora
Bobby:     Øh... Mine briller de er store
Alle:      Ja det er juletid, så ønsk dig et par nye
           Nu' det jul i Angora
Kåre:      Nå, så skal vi ha' en bette juleøl, da
Baune:     Yiha! Skål i skideskuret, ikå!
Alle:      Ja, vi skal bælle øl og ønske glædelig jul
Pim:       Merry christmais!
Alle:      Ja, vi skal bælle øl og ønske glædelig jul
Simon:     Grüss Gott
Alle:      Ja, vi skal bælle øl og ønske glædelig jul


------------------------------------------------------------------------------
 11th /December /09
 Just mail me at Maitinin@gmail.com with questions, comments and corrections!
------------------------------------------------------------------------------


 " Maitinin writing here - the author of this tab.

   The past 11 years, I have generated 10,318,000 views and 815 top-rated tabs for this site.
   If you want to support an eager contributor like me, check out my own site:


   _____  http://www.PlayLikeTheGreats.com  _____


   Here I will continue uploading my transcriptions - and hopefully make a bit more than nothing.

   Best regards,
   Maitinin "
Suggest correction
What's this?
You can suggest a correction to this tab. Community and Mods will review your correction and vote to approve or reject it.
comments
We did not receive enough feedback on this tab! Please rate:
print report bad tab
1 2 3 4 5
guest
You may want to rate the tab now too:
select rating
Please do not post tabs as comments. Select "correction" instead!