Oops, an error
Loading. Please wait.

Resunds Visan Tab

1,152 views 1 this week
3 commentsread comments
1 2 3 4 5
x 3
add to favorites
launch autoscroll
font size
0
reset
how to read this tab
guitar tuner
Autoscroll
slow
fast
+/-
esc
set tempo
stop
Help us to improve Ultimate-Guitar.com Take our survey!
×
Author
Difficulty
intermediate
Denne tabulartur er lyttet af Jacob Frandsen & Peter Frandsen

Öresunds Visan
Drengene Fra Angora


Det hele er fingerspil. 


Intro

|D|A7|D|A7sus4|


 |D|                      |A7|                       |D|             |A7sus4|

E|------2-----------2-----|-------0------------0-----|------2-----------2-----|---------0---|
H|------3-----------3-----|-------2------------2-----|------3-----------3-----|-------3-----|
G|---2-----2-----2-----2--|----0-----0------0-----0--|---2-----2-----2-----2--|-----0-------|
D|-0-----------0----------|--------------------------|-0-----------0----------|---2---------|
A|------------------------|-0------------0-----------|------------------------|-0-----------|
E|------------------------|--------------------------|------------------------|-------------|




Vers

|D G|D|D G|Em A| x 2

|G|Gm|D|A|


 |D G|                     |D|                     |D G|
 
E|------2------------3-----|------2-----------2----|------2------------3-----|
H|------3------------0-----|------3-----------3----|------3------------0-----|
G|---2-----2------0-----0--|---2-----2-----2-----2-|---2-----2------0-----0--|
D|-0-----------------------|-0-----------0---------|-0-----------------------|
A|-------------------------|-----------------------|-------------------------|
E|-------------3-----------|-----------------------|-------------3-----------|


 |Em A|

E|------0-----------0-----|
H|------0-----------3-----|
G|---0-----0-----3-----3--|   x 2
D|------------------------|
A|------------0-----------|
E|-0----------------------|


 |G|                      |Gm|                     |D|                    |A|
 
E|-------3-----------3----|-------3-----------3----|------2-----------2----|-------0---------0-|
H|-------0-----------0----|-------3-----------3----|------3-----------3----|-------3---------3-|
G|----0-----0-----0-----0-|----3-----3-----3-----3-|---2-----2-----2-----2-|----3-----3--------|
D|------------------------|------------------------|-0-----------0---------|-------------------|
A|------------------------|------------------------|-----------------------|-0------------0----|
E|-3-----------3----------|-3-----------3----------|-----------------------|-------------------|





Omk

|D|A|G|Gm|D|A| x 2


 |D|                     |A|

E|------2-----------2----|-------0-----------0----|
H|------3-----------3----|-------3-----------3----|
G|---2-----2-----2-----2-|----3-----3-----3-----3-|
D|-0-----------0---------|------------------------|
A|-----------------------|-0-----------0----------|
E|-----------------------|------------------------|


 |G|                      |Gm|                     |D|                    |A|
 
E|-------3-----------3----|-------3-----------3----|------2-----------2----|-------0---------0-|
H|-------0-----------0----|-------3-----------3----|------3-----------3----|-------3---------3-|
G|----0-----0-----0-----0-|----3-----3-----3-----3-|---2-----2-----2-----2-|----3-----3--------| 
D|------------------------|------------------------|-0-----------0---------|-------------------|
A|------------------------|------------------------|-----------------------|-0------------0----|
E|-3-----------3----------|-3-----------3----------|-----------------------|-------------------|

x 2



B-stykke

|F#|Bm|A|D|H7/D#|Em|A|D|


 |F#|                        |Bm|                       |A|

E|----------2-----------2----|---------2-----------2----|---------0-----------0----|
H|----------2-----------2----|---------3-----------3----|---------3-----------3----|
G|-------3-----3-----3-----3-|------4-----4-----4-----4-|------3-----3-----3-----3-|
D|---------------------------|--------------------------|--------------------------|
A|---------------------------|---2-----------2----------|---0-----------0----------|
E|-0-2------------2----------|-0------------------------|-0------------------------|


 |D|                     |H7/D#|                  |Em|

E|------2-----------2----|-------2-----------2----|-------0-----------0----|
H|------3-----------3----|-------0-----------0----|-------0-----------0----|
G|---2-----2-----2-----2-|----2-----2-----2-----2-|----0-----0-----0-----0-|
D|-0-----------0---------|-1-----------1----------|------------------------|
A|-----------------------|------------------------|------------------------|
E|-----------------------|------------------------|-0-----------0----------|


 |A|                      |D| 

E|-------0-----------0----|------2-----------2----|
H|-------3-----------3----|------3-----------3----|
G|----3-----3-----3-----3-|---2-----2-----2-----2-|
D|------------------------|-0-----------0---------|
A|-0-----------0----------|-----------------------|
E|------------------------|-----------------------|







|D G|D|D G|Em A| x 2

|G|Gm|D|A|

I en liten bot - sittar vi och kyssar
Midt på Øresund - sidder to forelsked' bøsser
En elskovsstund på Öresund
Kys mig med din fuldskægsmund
Javist, min danska ven 

|D|A|G|Gm|D|A| x 2

För vi knullar ut på sundet - det' vor hemliga tradition
Vi kæler lidt og nusser blidt - och smager lidt på korven hos verandre
Smak på korven min

|D G|D|D G|Em A| x 2

|G|Gm|D|A|

Hov, hvad er nu det - der' en båd der kommer nærmer'
Se det norske flag - der är en enlig mann i boten
Hej på dig, jeg hetter Kjell - får jeg vare med i kvell?
Ja ja, naturligvis

|D|A|G|Gm|D|A| x 2

För vi knullar ut' på sundet - det er godt at vare tre
Båten vipper litt, vi boller blidt, och ni kan tro vi får den i kanalen - i kanalen 
Ja, vi knullar ut' på sundet - får jeg bappe på din orm?
Ja, guf min gren, så den bli'r ren - og hold om mig og sig jeg er jeres krammebjørn - Vor krammebjørn 


B-stykke |F#|Bm|A|D|H7/D#|Em|A|D|


|D|A|G|Gm|D|A| x 2

Ja, vi knullar ut' på sundet - vi har et kjæmpe homsetref
Du er så smuk, får jeg se din kuk
Det kan du tro, jeg har ikke noe bukser på
Ikke nogen bukser på

|D|A|G|Gm|D|A| x 2

Nu har vi knullat ut' på sundet - og dyrket numsegymnastik
Vi ses igjen, adjö min ven
Ja, næste lørdag knullar vi på Öresund
Nok engang, nok engang


Suggest correction
Give kudos to tab author, rate the tab!
1 2 3 4 5
comments
print report bad tab
3 comments total.
0 reply
Maitinin 19,542 Oct 27, 2007 10:55 AM

der er nogle åbenlyse fejl i tab'en og lidt rod med 9 toner per takt nede i c-stykket, men ellers er det perfekt

0 reply
PedeD 63 Nov 02, 2007 03:02 PM

Jo tak

0 reply
henrik012 10 Sep 03, 2008 02:23 PM

Genial sang!!!:-)

her er teksten med becifringer

http://tabz.dk/se.php?id=566&titel=ok

guest
You may want to rate the tab now too:
select rating
Wanna post a correction for this tab? Suggest correction