Oops, an error
Loading. Please wait.

Fools Tab

13 views 3 this week
no commentswrite comment
1 2 3 4 5
2 more votes to show rating
add to favorites
launch autoscroll
font size
0
reset
how to read this tab
guitar tuner
Autoscroll
slow
fast
+/-
esc
set tempo
stop
Help us to improve Ultimate-Guitar.com Take our survey!
×
---------------------------------------------------------------------------------------------
                                  Fools-Dresses (Guitar Tab)
---------------------------------------------------------------------------------------------

Tabbed by:Mark Donohue
Email:mwdonohue97@gmail.com

Tuning:Standard

_____________________________________________________________________________________________


[Intro] (0:00-0:15)

e|-----------------------------------|-----------------------------------|
B|-----------------------------------|-----------------------------------|
G|-----------------------------------|-----------------------------------| (Play x2)
D|-----------------------------------|-----------------------------------|
A|--3-3-3-3--3---5-------------------|--3-3-3-3--3---5-------------------|
E|-------------------5-5-5-5--5------|-------------------5-5-5-5--5------|


[Verse 1] (0:16-0:31)

e|-----------------------------------|-----------------------------------|
B|-----------------------------------|-----------------------------------|
G|-----------------------------------|-----------------------------------| (Play x2)
D|-----------------------------------|-----------------------------------|
A|--3-3-3-3--3---5-------------------|--3-3-3-3--3---5-------------------|
E|-------------------5-5-5-5--5------|-------------------5-5-5-5--5------|


[Pre-Chorus] (0:32-0:54)

e|-----------------------------------|-----------------------------------|
B|-----------------------------------|-----------------------------------|
G|-----------------------------------|-----------------------------------| (Play x3)
D|-----------------------------------|-----------------------------------|
A|--3-3-3-3--3---5-------------------|--3-3-3-3--3---5-------------------|
E|-------------------5-5-5-5--5------|-------------------5-5-5-5--5------|


[Chorus] (0:55-1:11)

e|-----------------------------------|-----------------------------------|
B|-----------------------------------|-----------------------------------|
G|-----------------------------------|-----------------------------------| (Play x2)
D|-----------------------------------|-----------------------------------|
A|--3-3-3-3--3---5-------------------|--3-3-3-3--3---5-------------------|
E|-------------------5-5-5-5--5------|-------------------5-5-5-5--5------|


[Bridge] (1:12-1:15)

e|-----------------------------------|
B|-----------------------------------|
G|-----------------------------------|
D|-----------------------------------|
A|--3-3-3-3--3---5-------------------|
E|-------------------5-5-5-5--5------|


[Verse 2] (1:16-1:31)

e|-----------------------------------|-----------------------------------|
B|-----------------------------------|-----------------------------------|
G|-----------------------------------|-----------------------------------| (Play x2)
D|-----------------------------------|-----------------------------------|
A|--3-3-3-3--3---5-------------------|--3-3-3-3--3---5-------------------|
E|-------------------5-5-5-5--5------|-------------------5-5-5-5--5------|


[Pre-Chorus] (1:32-1:54)

e|-----------------------------------|-----------------------------------|
B|-----------------------------------|-----------------------------------|
G|-----------------------------------|-----------------------------------| (Play x3)
D|-----------------------------------|-----------------------------------|
A|--3-3-3-3--3---5-------------------|--3-3-3-3--3---5-------------------|
E|-------------------5-5-5-5--5------|-------------------5-5-5-5--5------|


[Chorus] (1:55-2:11)

e|-----------------------------------|-----------------------------------|
B|-----------------------------------|-----------------------------------|
G|-----------------------------------|-----------------------------------| (Play x2)
D|-----------------------------------|-----------------------------------|
A|--3-3-3-3--3---5-------------------|--3-3-3-3--3---5-------------------|
E|-------------------5-5-5-5--5------|-------------------5-5-5-5--5------|


[Chorus] (2:28-2:59)

e|-----------------------------------|-----------------------------------|
B|-----------------------------------|-----------------------------------|
G|-----------------------------------|-----------------------------------| (Play x2)
D|-----------------------------------|-----------------------------------|
A|--3-3-3-3--3---5-------------------|--3-3-3-3--3---5-------------------|
E|-------------------5-5-5-5--5------|-------------------5-5-5-5--5------|




Suggest correction
Give kudos to tab author, rate the tab!
1 2 3 4 5
comments
print report bad tab
guest
You may want to rate the tab now too:
select rating
Wanna post a correction for this tab? Suggest correction