Oops, an error
Loading. Please wait.

What Would I Do Without You Tab

5,878 views 45 this week
no commentswrite comment
1 2 3 4 5
accurate
x 3
add to favorites
launch autoscroll
font size
0
reset
how to read this tab
guitar tuner
Tab Pro tools
  • play this tab
  • loop segment
  • change instrument
  • show fretboard
  • metronome
Autoscroll
slow
fast
+/-
esc
set tempo
stop
Contributor
Difficulty
novice
Drew Holcomb And The Neighbors - What Would I Do Without You

Tabbed by: Go0fy
Tuning: Standard
Capo on: 8th fret


Chords used:
        EDAGBe
G      (32000x)
F#     (20000x)
Em     (02200x)
C      (032000)
D      (000232)
Note that some chords aren't the same as the actual chord name.

----------------------------------|
Guitar One: Strumming the chords. |
----------------------------------|
Verse 1:
G                F#
Sometimes I wake up with a sadness,
Em
Other days, it feels like madness,
C                    D
So, what would I do without you.

G                    F#
When colors turn to shades of grey,
Em
With the weight of the world at the end of the day,
C                   D
Oh, what would I do without you.

Verse 2:
D             G            C
A decade goes by without a warning,
G                   F#               Em
And there's still a kindness in your eyes,
D          G                 C
Amidst the questions and the worry,
D                      C
A peace of mind always takes me by surprise.


Interlude:
Same as verse 1; G,F#, Em, C, D
Or play solo part:

E|-----------------------------------------------------------|
B|-----------------------------------------------------------|
G|--2/4--4--4\2--2--2\0--0-------0----------------0-----0h2--|
D|--------------------------2h4-----4p2p0----0h2-----0-------|
A|-----------------------------------------------------------|
E|-----------------------------------------------------------|


Verse1
G,F#, Em, C, D

Verse 2
D, G, C, G, F#, Em, D, G, C, D, C

Ending:
G                     F#
You got your sunshine I got rain clouds,
Em
You got hope I got my doubts,
C   F#              Em
So, what would I do without you,
C   F#              Em
Oh, what would I do without you,
C   F#(stop strumming)      G   F#  Em  C  D  G!
Oh, what would I do without you.


----------------------------------|
Guitar Two: Picking pattern       |
----------------------------------|
Tip: Learn the chords of guitar 1 first. They are the same.

Verse 1:

        G          F#         Em         Em          C
E|------------------------------------------------------------------|
B|------------0----------0----------0----------0-----------0--------|
G|-------------0-0--------0-0--------0-0--------0-0---------0-0-----|
D|---------0----0-----0----0-----2----0-----2----0------2----2------|
A|---------------------------------------------------3--------------|
E|------3----------2----------0----------0--------------------------|

        C          D          D
E|------------------------------------------|
B|------------0----------3----------3-------|
G|-------------0-0--------2-2--------2-2----|    x2
D|---------2----2-----0----0-----0----0-----|
A|------3----------0----------0-------------|
E|------------------------------------------|

Verse 2:

        D          G          C          C           G
E|------------------------------------------------------------------|
B|------------3----------0----------0----------0-----------0--------|
G|-------------2-2--------0-0--------0-0--------0-0---------0-0-----|
D|---------0----0-----0----0-----2----2-----2----2------0----0------|
A|------0----------2----------3----------3--------------------------|
E|---------------------------------------------------3--------------|

        F#         Em          Em
E|------------------------------------------------|
B|------------0----------0----------0-------------|
G|-------------0-0--------0-0--------0-0----------|
D|---------0----0-----2----2-----2----2-----------|
A|------------------------------------------------|
E|------2----------0----------0-------------------|

        D          G         C          C
E|-----------------------------------------------------|
B|------------3----------0----------0----------0-------|
G|-------------2-2--------0-0--------0-0--------0-0----|
D|---------0----0-----0----0-----2----2-----2----2-----|
A|------0----------2----------3----------3-------------|
E|-----------------------------------------------------|

        D          D          C          C
E|-----------------------------------------------------------|
B|------------3----------3----------0----------0-------------|
G|-------------2-2--------2-2--------0-0--------0-0----------|
D|---------0----0-----0----0-----2----2-----2----2-----------|
A|------0----------0----------3----------3-------------------|
E|----------------------------0------------------------------|

Interlude:
Same as verse 1.

Verse 1
Verse 2
Interlude
Verse 1

Ending:
Pick the usual way as in verse 1, but end on F# and Em for three turns. Like Guitar One:

G                     F#
You got your sunshine I got rain clouds,
Em
You got hope I got my doubts,
C   F#           Em
So, what would I do without you,
C   F#           Em
Oh, what would I do without you,
C   F#(stop picking)        G   F#  Em  C  D  G!
Oh, what would I do without you.



Thats it! Enjoy!
Comment and rate if you like it.
comments
We did not receive enough feedback on this tab! Please rate:
print report bad tab
1 2 3 4 5
I want to post or [tab]
guest
You may want to rate the tab now too:
select rating
Please do not post tabs as comments. Select "correction" instead!