Oops, an error
Loading. Please wait.

New Classic Acoustics tab

19,117 views 12 this week
2 commentsread comments
1 2 3 4 5
x 5
add to favorites
×
Save as Personal and add changes to this tab that will be seen only by you. Learn more ›
×
You can save this tab as Personal to edit and correct it or add notes. All changes will be seen only by you. Learn more »
launch autoscroll
font size
0
reset
how to read this tab
guitar tuner
edit
Autoscroll
slow
fast
+/-
esc
set tempo
stop
i think it is pretty close-boxofcoco80


Standard Tuning:
Capo On 2nd Fret

--------------------------------------|
--------------------------------------|
--------------------------------------|
--9-9-9-9-9-9-9-9-9-9-9-9-9-9-9-9-----|
-7-7-7-7-6-6-6-6---------6-6-6-6------|
-----------------7-7-7-7--------------|

Pre:
Asus4 Bsus4 G#/Bsus4 Bsus4
x02200 x24400 4x4400 x24400

Chorus:
Asus4 Bsus4 C#msus Eb/Esus Esus4
x02200 x24400 x46600 x69800 x79900

Bridge:
Asus4 Bsus4 C#msus Bsus4
Suggest correction
Creating personal tab
Creating personal tab
You can edit any tab online and save it as your Personal.

You can edit, replace or remove any tab part or add personal notes – all changes will be seen only by you.

Personal tabs can be accessed anytime from any device, even offline.
Learn more »
comments
print report bad tab
2 comments total.
0 reply
supermanruler 112 Nov 05, 2009 03:33 AM

It's pretty close. If you play it without capo it's like this..
This part repeats trough the whole song. Nice job thoug.
Em Em D D C C
E|---7---7---5---5---3---3---|
A|---7---7---5---5---3---3---|
D|---9---9---7---7---5---5---|
G|---9---9---7---7---5---5---|
H|---6---6---7---7---5---5---|
E|---7---7---5---5---3---3---|

You can also play it like this
Em7 Em7 D D Cadd9 Cadd9
E|---0---0---x---x---0---0---|
A|---2---2---x---x---3---3---|
D|---2---2---0---0---2---2---|
G|---0---0---2---2---0---0---|
H|---3---3---3---3---3---3---|
E|---3---3---2---2---3---3---|

0 reply
Parreth 133 Feb 29, 2012 05:23 PM

Great tab, I like it.

guest
You may want to rate the tab now too:
select rating
Wanna post a correction for this tab? Suggest correction