Oops, an error
Loading. Please wait.

Under The Boardwalk Bass Tab

version 1
version 1

Whole song

Interactive

13,597 views 18 this week
no commentswrite comment
1 2 3 4 5
excellent!
x 8
add to favorites
launch autoscroll
font size
0
reset
guitar tuner
Autoscroll
slow
fast
+/-
esc
set tempo
stop
Help us to improve Ultimate-Guitar.com Take our survey!
×
Contributor
Difficulty
MOxner 1,836
novice
[INTRO]
  G        G        G        G  
G:---47---|---4----|---47---|---4----|
D:5-------|5-------|5-------|5-------|
A:------5-|--------|------5-|--------|
E:--------|--------|--------|--------|

[VERSE]
               G                            G             D        D
  Oh, when the sun beats down and burns the tar up on the roof
           D                              D                   G      G7
  And your shoes get so hot you wish your tired feet were fireproof
            C           C             G      G
  Under the boardwalk     Down by the sea    Yeah
       G                   D               G        G
  On a blanket with my baby   is where I'll be

  G        G        D        D        D        D        G        G7
G:---47---|---4----|--------|--------|--------|--------|---47---|---4----|
D:5-------|5-------|---47---|---4----|---47---|---4----|5-------|5-------|
A:------5-|--------|5-------|5-------|5-------|5-------|------5-|------02|
E:--------|--------|------5-|--------|------5-|--------|--------|--------|

  C        C        G        G        G        D        G        G
G:--------|--------|---47---|---4----|---47---|--------|---47---|--------|
D:---25---|---2----|5-------|5-------|5-------|---4--7-|5-------|5--5--54|
A:3-------|3-------|------5-|--------|------5-|5-------|------5-|--------|
E:------3-|--------|--------|--------|--------|--------|--------|--------|

[CHORUS]
            Em             Em                  D                D
                       Out of the sun                  We'll be havin' some fun
 (Under the boardwalk)              (Under the boardwalk) 
            Em             Em                  D                D
                    People walking above               We'll be making love
 (Under the boardwalk)              (Under the boardwalk) 
            Em     
  Under the boardwalk  Boardwalk 

  Em       Em       D        D        Em       Em       D        D
G:--------|--------|--------|--------|--------|--------|--------|--------|
D:--------|--------|--------|--------|--------|--------|--------|--------|
A:7--77--7|7--77---|5--55--5|5--55---|7--77--7|7--77---|5--55--5|5--55---|
E:--------|--------|--------|--------|--------|--------|--------|--------|

  Em       Em
G:--------|--------|
D:--------|--------|
A:7 7 --7 |7 ------|
E:--------|--------|

[VERSE]
           G                       G                  D        D
  From the park you hear the happy sounds of the carousel        Mm-mm
          D                   D                         G      G7
  You can almost taste the hotdogs and French fries they sell
            C           C             G      G
  Under the boardwalk     Down by the sea    Yeah
       G                   D               G        G
  On a blanket with my baby   is where I'll be

  G        G        D        D        D        D        G        G7
G:---47---|---4----|--------|--------|--------|--------|---47---|---4----|
D:5-------|5-------|---47---|---4----|---47---|---4----|5-------|5-------|
A:------5-|--------|5-------|5-------|5-------|5-------|------5-|------02|
E:--------|--------|------5-|--------|------5-|--------|--------|-----3--|

  C        C        G        G        G        D        G        G
G:--------|--------|---47---|---4----|---47---|--------|---47---|--------|
D:---25---|---2----|5-------|5-------|5-------|---4--7-|5-------|5--5--54|
A:3-------|3-------|------5-|--------|------5-|5-------|------5-|--------|
E:------3-|--------|--------|--------|--------|--------|--------|--------|

[CHORUS]
            Em             Em                  D                D
                       Out of the sun                  We'll be havin' some fun
 (Under the boardwalk)              (Under the boardwalk) 
            Em             Em                  D                D
                    People walking above               We'll be making love
 (Under the boardwalk)              (Under the boardwalk) 
            Em     
  Under the boardwalk  Boardwalk 

  Em       Em       D        D        Em       Em       D        D
G:--------|--------|--------|--------|--------|--------|--------|--------|
D:--------|--------|--------|--------|--------|--------|--------|--------|
A:7--77--7|7--77---|5--55--5|5--55---|7--77--7|7--77---|5--55--5|5--55---|
E:--------|--------|--------|--------|--------|--------|--------|--------|

  Em       Em
G:--------|--------|
D:--------|--------|
A:7 7 --7 |7 ------|
E:--------|--------|

[INSTRUMENTAL]
  G     G     D     D     D     D     G     G7

            C           C             G      G
  Under the boardwalk     Down by the sea    Yeah
       G                   D               G        G
  On a blanket with my baby   is where I'll be

  G        G        D        D        D        D        G        G7
G:---47---|---4----|--------|--------|--------|--------|---47---|---4----|
D:5-------|5-------|---47---|---4----|---47---|---4----|5-------|5-------|
A:------5-|--------|5-------|5-------|5-------|5-------|------5-|------02|
E:--------|--------|------5-|--------|------5-|--------|--------|-----3--|

  C        C        G        G        G        D        G        G
G:--------|--------|---47---|---4----|---47---|--------|---47---|--------|
D:---25---|---2----|5-------|5-------|5-------|---4--7-|5-------|5--5--54|
A:3-------|3-------|------5-|--------|------5-|5-------|------5-|--------|
E:------3-|--------|--------|--------|--------|--------|--------|--------|

[CHORUS]
            Em             Em                  D                D
                       Out of the sun                  We'll be havin' some fun
 (Under the boardwalk)              (Under the boardwalk) 
            Em             Em                  D                D
                    People walking above               We'll be making love
 (Under the boardwalk)              (Under the boardwalk) 
            Em     
  Under the boardwalk  Boardwalk 

  Em       Em       D        D        Em       Em       D        D
G:--------|--------|--------|--------|--------|--------|--------|--------|
D:--------|--------|--------|--------|--------|--------|--------|--------|
A:7--77--7|7--77---|5--55--5|5--55---|7--77--7|7--77---|5--55--5|5--55---|
E:--------|--------|--------|--------|--------|--------|--------|--------|

  Em       Em
G:--------|--------|
D:--------|--------|
A:7 7 --7 |7 ------|
E:--------|--------|

Tabbed by Michael Oxner
moxner@nbnet.nb.ca
October 3rd, 2011
comments
print report bad tab
I want to post or [tab]
guest
You may want to rate the tab now too:
select rating
Please do not post tabs as comments. Select "correction" instead!