Oops, an error
Loading. Please wait.

House Of 1982 Built Like A Ship Tab

version 1
version 1

Whole song

Interactive

4,458 views 12 this week
1 commentread comment
1 2 3 4 5
accurate
x 5
add to favorites
launch autoscroll
font size
0
reset
how to read this tab
guitar tuner
Autoscroll
slow
fast
+/-
esc
set tempo
stop
Help us to improve Ultimate-Guitar.com Take our survey!
×
Author
Difficulty
novice
Artist: Driftless Pony Club
Song: House Of 1982 Built Like a Ship
Tabbed by Airbourne775 (Lynn)
Tabbed June 20, 2012



Intro/Chorus


e|---------------------------------|
b|---------------------------------|
g|-----------10--9--9--10--10------|
d|--10-------10--9--9--10--10--10--|
a|--10-------8---7--7--8---8---10--|
e|--8--------------------------8---|

Verse

e|---------------------------------|
b|---------------------------------|
g|------------------------10----9--|
d|--10-----------5--------10----9--|
a|--10-----------5--------8-----7--|
e|--8------------3-----------------|

Bridge

e|------------------------------------------------------|
b|------------------------------------------------------|
g|------------------------------------------------------|
d|----------10-9-------------7-7--9-10-9----------------|
a|----10----------10--7--10---------------10--7--10-----|
e|--8------------------------------------------------8--|

I'm not too sure about the outro part.. it sounds like octaves, but I'm not 100% sure. I 
just play the intro/chorus again.



I did this all by ear so it may not be 100%, but I tried. It sounds right to me. Anyways 
these are generally the chords/notes played, listen to the song for timing and how many 
times you play each part, etc.

Enjoy!
Suggest correction
comments
print report bad tab
1 comment total.
+2 reply
TheWho2 460 wrote on January 16 2013, 05:23 pm

I feel the Bridge should be

e|------------------------------------------------------|
b|------------------------------------------------------|
g|------------------------------------------------------|
d|--------*-10-9-------------7-7--9-10-9----------------|
a|----10----------10--7--10---------------10--7--10-----|
e|--8------------------------------------------------8--|

*get rid of that note, maybe.

guest
You may want to rate the tab now too:
select rating
Wanna post a correction for this tab? Suggest correction