Oops, an error
Loading. Please wait.

Legends Of Archery Bass Tab

version 1
version 1

Whole song

Interactive

889 views 1 this week
no commentswrite comment
1 2 3 4 5
please rate
add to favorites
launch autoscroll
font size
0
reset
guitar tuner
Tab Pro tools
  • play this tab
  • loop segment
  • change instrument
  • show fretboard
  • metronome
Autoscroll
slow
fast
+/-
esc
set tempo
stop
Contributor
Song: Legends of Archery
Artist: Driftless Pony Club

Tabbed by: NaotoNekoCutie
Email: NaotoNekoCutie@hotmail.com

Tuning: EADG (Standard)


{Intro; No Bass for 10 measures}

G||-----------------------------------------------------------------|
D||-----------------------------------------------------------------|
A||-5-5-----------------------------5-5-----------------------------|
E||-----------------------------------------------------------------|

  |-----------------------------------------------------------------|
  |-----------------------------------------------------------------|
  |-5-5-----------------------------5-5-------------5-5-------------|
  |-----------------------------------------------------------------|


{Verse}

G||-----------------------------------------------------------------|
D||-----------------------------------------------------------------|
A||-----------------------------------------------------------------|
E||-3---3---3---3/--6---6---6---6\--3---3---3---3/--6-6-6-6-5-5-5-5-|

  |-----------------------------------------------------------------|
  |-----------------------------------------------------------------|
  |-----------------------------------------------------------------|
  |-3---3---3---3/--10--10--10--10\-3---3---3---3/--6-6-6-6-5-5-5-5-|


{Break}

G||-----------------------------------------------------------------|
D||-----------------------------------------------------------------|
A||-------------------------5-5-------------------------------------|
E||-3-3-----6-6-----3-3-------------3-3-----6-6-----3-3-----3-3-----|

  |-----------------------------------------------------------------|
  |-----------------------------------------------------------------|
  |-------------------------5-5-------------------------------------|
  |-3-3-----6-6-----3-3-------------3-3-----6-6-----3-3-----3-3-3---|

  |-----------------------------------------------------------------|
  |-----------------------------------------------------------------|
  |-----------------------------------------------------------------|
  |-6---------------------------------------------------------------|

  |-----------------------------------------------------------------|
  |-----------------------------------------------------------------|
  |-----------------------------------------------------------------|
  |-6-6-6-6-6-6-6-6-6-6-6-6-6-6-6-6-6-6-6-6-6-6-6-6-6-6-6-6-6-6-6-6-|

  |---------------------------------|
  |---------------------------------|
  |---------------------------------|
  |-6-6-6-6-6-6-6-6-6-6-6-6-6-6-6-6\|


{Solo}

G||-----------------------------------------------------------------|
D||-----------------------------------------------------------------|  x4 
A||-------------------------5-5-5-5-------------------------3-5-3---|
E||-3-3-3---6-6-6---3-3-3-----------3-3-3---6-6-6-6-3-3-3---------5-|

  |-----------------------------------------------------------------|
  |-----------------------------------------------------------------|
  |-----------------------------------------------------------------|
  |-3---------------------------------------------------------------|


{Outro}

G||-----------------------------------------------------------------|
D||-----------------------------------------------------------------|
A||---------------------------------5---5---5-5-5-5---3-3-3-3-3-3-3-|
E||-6---6---6-6-6-6-6---6---6-6-6-6---------------------------------|

  |---|
  |---|  x37
  |---|
  |-6-|



************************************

 /  slide up
 \  slide down

************************************
comments
We did not receive enough feedback on this tab! Please rate:
print report bad tab
1 2 3 4 5
I want to post or [tab]
guest
You may want to rate the tab now too:
select rating
Please do not post tabs as comments. Select "correction" instead!