Oops, an error
Loading. Please wait.

Legends Of Archery Tab

version 1
version 1

Whole song

Interactive

786 views 1 this week
1 commentread comment
1 2 3 4 5
please rate
add to favorites
launch autoscroll
font size
0
reset
how to read this tab
guitar tuner
Tab Pro tools
  • play this tab
  • loop segment
  • change instrument
  • show fretboard
  • metronome
×
Best way to learn
"Legends Of Archery"
Autoscroll
slow
fast
+/-
esc
set tempo
stop
Contributor
Difficulty
intermediate
-------------------------------------------------------------------------------
                             Legends of Archery - Diftless Pony Club
-----------------------------------------------------------------------
Tabbed by: cooldrummer
Email: ultimate97@hotmail.com


Tuning: Standard
intro:
e|----------------------------------------------------------|
B|---6-----6-----6-----6-----10-----10-----10----10---------|
G|-7---7-7---7-7---7-7---7-7----7-7----7-7----77----7-------|  (4 times)
D|----------------------------------------------------------|
A|----------------------------------------------------------|
E|----------------------------------------------------------|

verse:
e|-0-0-0-0-0--0--0--0-0-0-0-0-0-0-0-0-------------|
B|-0-0-0-0-0--0--0--0-0-0-0-0-0-0-0-0-------------|
G|-0-0-0-0-0--0--0--0-0-0-0-0-0-0-0-0-------------| (2 times)
D|-9-9-9-9-11-11-11-7-9-9-9-9-7-7-7-7-------------|
A|-7-7-7-7-9--9--9--5-7-7-7-7-5-5-5-5-------------|
E|-0-0-0-0-0--0--0--0-0-0-0-0-0-0-0-0-------------|

repeat intro:

e|----------------------------------------------------------|
B|---6-----6-----6-----6-----10-----10-----10----10---------|
G|-7---7-7---7-7---7-7---7-7----7-7----7-7----77----7-------|  (2 times)
D|----------------------------------------------------------|
A|----------------------------------------------------------|
E|----------------------------------------------------------|

   Lalalalalalalalalalalala
e|---------------------------------------------|
B|---------------------------------------------|
G|-5-8-5-3-5-1-5-8-5-5-8-5---------------------| (2 times)
D|---------------------------------------------|
A|---------------------------------------------|
E|---------------------------------------------|
 2nd time add this:   [2nd guitar build up:]
e|-----------------------------------------8-|
B|-----------------------------------------5-|
G|-5-8-5-5-8-5-----------------------------7-|
D|-----------------------------------------0-|
A|-----------------------------------------0-|
E|-----------------------------------------0-|
(repeat the build up about 10 times)

next part:
e|-0-0---0-0---0-0---0-0-------------------|
B|-0-0--90-0--90-0--90-0--9----------------|
G|-0-0-9-0-0-9-0-0-9-0-0-9-9-9-----7-7-----|   (2 times)
D|-7-7---7-7---7-7---7-7-------7-7-----5-5-|
A|-0-0---0-0---0-0---0-0-------------------|
E|-0-0---0-0---0-0---0-0-------------------|

e|-0-0-----0-0-----0-0-----0-0---------------------|
B|-0-0-9-110-0-9-110-0-9-110-0-9-11----------------|
G|-0-0-----0-0-----0-0-----0-0------9-9-7-7-5-5-4--|  (2 times)
D|-7-7-----7-7-----7-7-----7-7---------------------|
A|-0-0-----0-0-----0-0-----0-0---------------------|
E|-0-0-----0-0-----0-0-----0-0---------------------|

repeat intro:
e|----------------------------------------------------------|
B|---6-----6-----6-----6-----10-----10-----10----10---------|
G|-7---7-7---7-7---7-7---7-7----7-7----7-7----77----7-------|
D|----------------------------------------------------------|
A|----------------------------------------------------------|
E|----------------------------------------------------------|

"Don't listen to me..."
e|---------------------------------------------|
B|---------------------------------------------|
G|-5-8-5-3-5-1-5-8-5-5-8-5---------------------| (2 times)
D|---------------------------------------------|
A|---------------------------------------------|
E|---------------------------------------------|

e|------------------7-7-7-7-7-7-7-7-7-|
B|------------------5-5-5-5-5-5-5-5-5-|
G|-5-8-5-5-8-5------8-8-8-8-8-8-8-8-8-|
D|------------------0-0-0-0-0-0-0-0-0-|
A|------------------0-0-0-0-0-0-0-0-0-|
E|------------------0-0-0-0-0-0-0-0-0-|

************************************

| /   slide up
| \   slide down
| h   hammer-on
| p   pull-off
| ~   vibrato
| +   harmonic
| x   Mute note
| b   Bend
| pb  Pre-bend
| br  Bend release
| pbr Pre-bend release
| brb Bend release bend

************************************
comments
We did not receive enough feedback on this tab! Please rate:
print report bad tab
1 2 3 4 5
1 comment total.
0 reply
NaotoNekoCutie wrote on July 30 2010, 07:40 pm

this is an insult to Craig Benzine.

I want to post or [tab]
guest
You may want to rate the tab now too:
select rating
Please do not post tabs as comments. Select "correction" instead!