Oops, an error
Loading. Please wait.

Thanks Earthquake Bass Tab

79 views 1 this week
no commentswrite comment
1 2 3 4 5
3 more votes to show rating
add to favorites
launch autoscroll
font size
0
reset
guitar tuner
×
Best way to learn
"Thanks Earthquake"
Autoscroll
slow
fast
+/-
esc
set tempo
stop
Author
Difficulty
-------------------------------------------------------------------------------
                  THANKS, EARTHQUAKE - Driftless Pony Club
-------------------------------------------------------------------------------

Tuning: Standard

x3
G|-3~----2~------------------------------------------------------------------|
D|----3~---------------------------------------------------------------------|
A|---------------------------------------------------------------------------|
E|---------------------------------------------------------------------------|
x1
G|-3~------------------------------------------------------------------------|
D|----3~----3~---------------------------------------------------------------|
A|-------1~------------------------------------------------------------------|
E|---------------------------------------------------------------------------|
x4
G|---------------------------------------------------------------------------|
D|---------------------------------------------------------------------------|
A|-1-1-1-1-1-1-1-1---------0-0-0-0-------------------------------------------|
E|-----------------1-1-1-1---------------------------------------------------|
x2
G|---------------------------------------------------------------------------|
D|----3~---------------------------------------------------------------------|
A|-1~------------------------------------------------------------------------|
E|---------------------------------------------------------------------------|
x2           1.   2.
G|----------|----|-----------------------------------------------------------|
D|----------|----|-----------------------------------------------------------|
A|-1~--1/8~-|-8\-|-8-8-8-8-8-8-8-8-7-7-7-7-7-7-7-7---------------------------|
E|----------|----|-----------------------------------------------------------|
x5
G|---------------------------------------------------------------------------|
D|---------------------------------------------------------------------------|
A|-1--1-1--1-1--1-1-----------0-0--0-0---------------------------------------|
E|-------------------1-1--1-1------------------------------------------------|
x4
G|---------------------------------------------------------------------------|
D|---------3--------------3--------------------------------------------------|
A|-1-1-1-1---1-1--1-1-1-1---1-1----------3--------------3--------------------|
E|-------------------------------1-1-1-1---1-1--1-1-1-1---1-1----------------|
x1
G|---------------------------------------------------------------------------|
D|---------------------------------------------------------------------------|
A|-1~------------------------------------------------------------------------|
E|---------------------------------------------------------------------------|


| \  slide down
| h  hammer-on
| p  pull-off
| ~  long tone
| +  harmonic
| x  Mute note
===============================================================================
Suggest correction
Give kudos to tab author, rate the tab!
1 2 3 4 5
comments
print report bad tab
guest
You may want to rate the tab now too:
select rating
Wanna post a correction for this tab? Suggest correction