Oops, an error
Loading. Please wait.

Arterial Black solo tab

version 1
version 1
by Drist
10,737 views 1 this week
10 commentsread comments
1 2 3 4 5
x 11
add to favorites
×
Save as Personal and add changes to this tab that will be seen only by you. Learn more ›
×
You can save this tab as Personal to edit and correct it or add notes. All changes will be seen only by you. Learn more »
launch autoscroll
font size
0
reset
how to read this tab
guitar tuner
backing track
0:00
0:00
edit
Autoscroll
slow
fast
+/-
esc
set tempo
stop
Arterial Black Solo:
Please, Critizism is heavially accepted please re-post/copy just get it right.


Drop D

Solo Pt. 1
e |------------------------------------|
B |------------------------------------|
G |------------------------------------|
D |------------------------------------|
A |------------------------------------|
D |-15-2-0-2-3-0-15-0-14-2-0-2-3-0-14--|

e |---------------------------------------|
B |---------------------------------------|
G |---------------------------------------|
D |---------------------------------------|
A |---------------------------------------|
D |-0-17-2-0-2-3-0-17-0-15-2-0-2-3-0-15-0-|


e |-------------------------------------------------------|
B |-------------------------------------------------------|
G |-------------------------------------------------------|
D |-------------------------------------------------------|
A |-15-2-0-2-3-0-15-0-14-2-0-2-3-0-14-0-17-2-0-2-3-0-17-0-|
D |-------------------------------------------------------|

e |--------------------------------------------------------|
B |--------------------18-1-0-1-17-1-0-1-20-1-0-1-18-1-0-1-|
G |--------------------------------------------------------|
D |--------------------------------------------------------|
A |-15-2-0-2-3-0-15-0--------------------------------------|
D |--------------------------------------------------------|

e |-------------------------------------------------------|
B |-17-1-0-1-18-1-0-1-20-1-0-1-18-1-0-1-17-1-0-1-18-1-0-1-|
G |-------------------------------------------------------|
D |-------------------------------------------------------|
A |-------------------------------------------------------|
D |-------------------------------------------------------|

e |--------------------------------------------------------------|
B |-17-1-0-1-15-1-0-1-17-1-0-1-18-1-0-1-20-1-0-1-22b-------------|
G |--------------------------------------------------22b--22b----|
D |--------------------------------------------------------------|
A |--------------------------------------------------------------|
D |--------------------------------------------------------------|









Solo Pt. 2
e |-14-17-17---14------------------------------------------------|
B |----------17---17b---14-17-17---14---------14-17-17---14------|
G |------------------------------16---16b---16---------16---16b--|
D |--------------------------------------------------------------|
A |--------------------------------------------------------------|
D |--------------------------------------------------------------|

e |--------------------------------|
B |--------------------------------|
G |--------------------------------|
D |--------------------------------|
A |-------------(slow slide up)----|
D |-2---4----7/8/9/10/11/12/13/14--|

Solo Pt. 3
e |-7-8-10-12-10-8-7-8888--8-10-12-10-8-7-8888-7777
B |------------------------------------------------|
G |------------------------------------------------|
D |------------------------------------------------|
A |------------------------------------------------|
D |------------------------------------------------|

e |-7-8-10-12-10-8-7-8888--8-10-12-10-8-7-8888-10101010-|
B |-----------------------------------------------------|
G |-----------------------------------------------------|
D |-----------------------------------------------------|
A |-----------------------------------------------------|
D |-----------------------------------------------------|

(Rhythm Guitar Comes in...)
e |-7-8-10-12-10-8-7-8888--8-10-12-10-8-7-8888-7777|
B |------------------------------------------------|
G |------------------------------------------------|
D |------------------------------------------------|
A |------------------------------------------------|
D |------------------------------------------------|


e |-7-8-10-12-10-8-7-8888--8-10-12-10-8-7-8888-|
B |--------------------------------------------|
G |--------------------------------------------|
D |--------------------------------------------|
A |--------------------------------------------|
D |--------------------------------------------|


e |15-12------------------|
B |-----15-12-------------|     ...Into Final Chorus
G |----------14-12--------|
D |---------------14-12---|
A |-----------------------|
D |-----------------------|



            
            
Suggest correction
Creating personal tab
Creating personal tab
You can edit any tab online and save it as your Personal.

You can edit, replace or remove any tab part or add personal notes – all changes will be seen only by you.

Personal tabs can be accessed anytime from any device, even offline.
Learn more »
comments
print report bad tab
10 comments total. Showing first comments.
+1 reply
phasesevenfold 213 Nov 27, 2007 02:12 AM

the frist part of the solo is a series of hammer ons pull offs and taps

Solo Pt. 1
t--h-p-h-h-p-t-----t--h-p-h-h-p-t
e |------------------------------------|
B |------------------------------------|
G |------------------------------------|
D |------------------------------------|
A |------------------------------------|
D |-15-2-0-2-3-0-15-0-14-2-0-2-3-0-14--|

t--h-p-h-h-p-t----t--h-p-h-h-p-t
e |---------------------------------------|
B |---------------------------------------|
G |---------------------------------------|
D |---------------------------------------|
A |---------------------------------------|
D |-0-17-2-0-2-3-0-17-0-15-2-0-2-3-0-15-0-|

t--h-p-h-h-p-t t--h-p-h-h-p-t t--h-p-h-h-p-t--
e |-------------------------------------------------------|
B |-------------------------------------------------------|
G |-------------------------------------------------------|
D |-------------------------------------------------------|
A |-15-2-0-2-3-0-15-0-14-2-0-2-3-0-14-0-17-2-0-2-3-0-17-0-|
D |-------------------------------------------------------|


t--h-p-h-h-p-t t--h-p-h--t-h-p-h-t--h-p-h--t-h-p-h
e |--------------------------------------------------------|
B |--------------------18-1-0-1-17-1-0-1-20-1-0-1-18-1-0-1-|
G |--------------------------------------------------------|
D |--------------------------------------------------------|
A |-15-2-0-2-3-0-15-0--------------------------------------|
D |--------------------------------------------------------|


t--h-p-h--t-h-p-h-t--h-p-h--t-h-p-h t--h-p-h--t-h-p-h
e |-------------------------------------------------------|
B |-17-1-0-1-18-1-0-1-20-1-0-1-18-1-0-1-17-1-0-1-18-1-0-1-|
G |-------------------------------------------------------|
D |-------------------------------------------------------|
A |-------------------------------------------------------|
D |-------------------------------------------------------|


t--h-p-h--t-h-p-h-t--h-p-h--t-h-p-h t--h-p-h
e |--------------------------------------------------------------|
B |-17-1-0-1-15-1-0-1-17-1-0-1-18-1-0-1-20-1-0-1-22b-------------|
G |--------------------------------------------------22b--22b----|
D |--------------------------------------------------------------|
A |--------------------------------------------------------------|
D |--------------------------------------------------------------|

-1 reply
Br3TT 123 Nov 27, 2007 10:48 AM

OMG thnx sooo much...... good tab... but you did leave out the taps ans pull-offs ect.. sooo

4*

+1 reply
RRfan5 10 Dec 22, 2007 12:14 PM

i was gonna say that too but he redeemed himself on the comments page. thanx man.

guest
You may want to rate the tab now too:
select rating
Wanna post a correction for this tab? Suggest correction