Oops, an error
Loading. Please wait.

Arterial Black tab

version 3
by Drist
9,200 views 1 this week
6 commentsread comments
1 2 3 4 5
x 19
add to favorites
×
Save as Personal and add changes to this tab that will be seen only by you. Learn more ›
×
You can save this tab as Personal to edit and correct it or add notes. All changes will be seen only by you. Learn more »
launch autoscroll
font size
0
reset
how to read this tab
guitar tuner
backing track
0:00
0:00
edit
Autoscroll
slow
fast
+/-
esc
set tempo
stop
This is my first tab I am submitting but not the first tab I have made so don't think
wrong. This is all tabbed by ear so it might not be 100% but pretty close. So yea if you use
it please rate or comment.Also U might want to listen to the song while you play to get 
beat down.

Updated:August 9/07 - I didn't notice all the little mistakes I made when submitting 
tab but I fixed most of em hoping to make this tab better. I know the timing is a little 
on some of the parts but if u listen to the song while u play this u should do fine.

| *  palm mute
| /  slide up
| ~  vibrato


Guitar 1
Intro
E|-----------------------------------------------------|
B|-----------------------------------------------------|
G|-----------------------------------------------------|
D|-0-00----------7-77----------3-33----------8-88--7-77|  x2
A|-0-00-00000000-7-77-77777777-3-33-33333333-8-88--7-77|
D|-0-00-00000000-7-77-77777777-3-33-33333333-8-88--7-77|
        ********      ********      ********

Guitar 2 comes in on second time
E|--------------------------------------|
B|---13b~------12b~-----11b~----/11~-10~|
G|--------------------------------------|
D|--------------------------------------|
A|--------------------------------------|
D|--------------------------------------|

Guitar 1
Verse
E|---------------------------------------|
B|---------------------------------------|
G|---------------------------------------|
D|-0-0---0-0-7-7---7-7-3-3---3-3-8-88-7-7|  x4
A|-0-0---0-0-7-7---7-7-3-3---3-3-8-88-7-7|
D|-0-0---0-0-7-7---7-7-3-3---3-3-8-88-7-7|

Guitar 2 comes in on the 3rd time guitar 1 does verse
E|------------------------------------------|
B|------------------------------------------|
G|------7----------9----------9-------------|
D|----5---7------7---9------7---9-----------|
A|-5----------7----------8---------7---8---7|
D|-----------------------------------8---7--|

Guitar 1
Chorus
E|-------------------------------------|
B|-------------------------------------|
G|-------------------------------------|
D|-3-3-3-3---3---8-7-3-0---8-7-3-0-----|   x2
A|-3-3-3-3---3---8-7-3-0---8-7-3-0-----|
D|-3-3-3-3---3---8-7-3-0---8-7-3-0-----|

Guitar 1
Verse
E|-----------------------------------------------------|
B|-----------------------------------------------------|
G|-----------------------------------------------------|
D|-0-00----------7-77----------3-33----------8-88--7-77|  x2
A|-0-00-00000000-7-77-77777777-3-33-33333333-8-88--7-77|
D|-0-00-00000000-7-77-77777777-3-33-33333333-8-88--7-77|
        ********      ********      ********
Guitar 2 (over verse second time)
E|--------------------------------------|
B|---13b~------12b~-----11b~----/11~-10~|
G|--------------------------------------|
D|--------------------------------------|
A|--------------------------------------|
D|--------------------------------------|

Guitar 1
Verse
E|---------------------------------------|
B|---------------------------------------|
G|---------------------------------------|
D|-0-0---0-0-7-7---7-7-3-3---3-3-8-88-7-7|  x4
A|-0-0---0-0-7-7---7-7-3-3---3-3-8-88-7-7|
D|-0-0---0-0-7-7---7-7-3-3---3-3-8-88-7-7|

Guitar 2 comes in the 3rd time guitar 1 plays verse
E|-13------------13------------13-----------------------|
B|----16--14--------16--14---------16-----16/19--18-----|
G|-----------17------------17---------------------------|
D|------------------------------------------------------|
A|------------------------------------------------------|
D|------------------------------------------------------|

Guitar 2 continued
E|-13------------13------------15-17---15-14h15p14h15p14h15p14p15-|
B|----16--14--------16--14----------------------------------------|
G|-----------17------------17-------------------------------------|
D|----------------------------------------------------------------|
A|----------------------------------------------------------------|
D|----------------------------------------------------------------|


Guitar 1
Chorus
E|-------------------------------------|
B|-------------------------------------|
G|-------------------------------------|
D|-3-3-3-3---3---8-7-3-0---8-7-3-0-----|
A|-3-3-3-3---3---8-7-3-0---8-7-3-0-----|
D|-3-3-3-3---3---8-7-3-0---8-7-3-0-----|

E|-------------------------------------|
B|-------------------------------------|
G|-------------------------------------|
D|-3-3-3-3---3---8-7-3-0---8-7-3-0-0-0-|
A|-3-3-3-3---3---8-7-3-0---8-7-3-0-0-0-|
D|-3-3-3-3---3---8-7-3-0---8-7-3-0-0-0-|
                                   * *
E|-------------------------------------|
B|-8-6--3-1----------------------------|
G|-------------------------------------|
D|---------------8-7-3-0---8-7-3-0-----|
A|---------------8-7-3-0---8-7-3-0-----|
D|---------------8-7-3-0---8-7-3-0-----|

E|-------------------------------------|
B|-------------------------------------|
G|-------------------------------------|
D|-3-3-3-3---3---8-7-3-0---8-7-3-0-----|
A|-3-3-3-3---3---8-7-3-0---8-7-3-0-----|
D|-3-3-3-3---3---8-7-3-0---8-7-3-0-----|


I haven't figured out the solo so were just gonna skip that part.
But durring solo guitar 2 plays
E|-----------------------|
B|-----------------------|
G|-----------------------|
D|-4-44--4-4--7-77--2-22-|  Repeat through entire solo
A|-4-44--4-4--7-77--2-22-|
D|-4-44--4-4--7-77--2-22-|

Guitar 1
Chorus
E|-------------------------------------|
B|-------------------------------------|
G|-------------------------------------|
D|-3-3-3-3---3---8-7-3-0---8-7-3-0-----|
A|-3-3-3-3---3---8-7-3-0---8-7-3-0-----|
D|-3-3-3-3---3---8-7-3-0---8-7-3-0-----|

E|-------------------------------------|
B|-------------------------------------|
G|-------------------------------------|
D|-3-3-3-3---3---8-7-3-0---8-7-3-0-0-0-|
A|-3-3-3-3---3---8-7-3-0---8-7-3-0-0-0-|
D|-3-3-3-3---3---8-7-3-0---8-7-3-0-0-0-|
                                   * *
E|-------------------------------------|
B|-------------------------------------|
G|-------------------------------------|
D|-3-3-3-3---3---8-7-3-0---8-7-3-0-----|
A|-3-3-3-3---3---8-7-3-0---8-7-3-0-----|
D|-3-3-3-3---3---8-7-3-0---8-7-3-0-----|
   * * *
E|-------------------------------------|
B|-------------------------------------|
G|-------------------------------------|
D|-3-3-3-3---3---8-7-3-0---8-7-3-0-----|
A|-3-3-3-3---3---8-7-3-0---8-7-3-0-----|
D|-3-3-3-3---3---8-7-3-0---8-7-3-0-----|

Guitar 1
Outtro
E|----------------------|
B|----------------------|
G|----------------------|
D|---8-7-3-8-7-3-887730-|
A|---8-7-3-8-7-3-887730-|
D|---8-7-3-8-7-3-887730-|
     * * * * * * *****
Suggest correction
Creating personal tab
Creating personal tab
You can edit any tab online and save it as your Personal.

You can edit, replace or remove any tab part or add personal notes – all changes will be seen only by you.

Personal tabs can be accessed anytime from any device, even offline.
Learn more »
comments
print report bad tab
6 comments total. Showing first comments.
0 reply
Alistairos 10 Jun 03, 2007 09:00 AM

timings of notes wrong.
sections missing.

-1 reply
black_roses_jmt 10 Jun 09, 2007 07:02 PM

not too bad, I guess you just want us to figure out our own timing? lol

0 reply
DuffMcKagan7179 1,502 Jun 19, 2007 06:32 AM

Is it just me, or are the notes guitar 2 hits over the intro riff pinch harmonics?

guest
You may want to rate the tab now too:
select rating
Wanna post a correction for this tab? Suggest correction