Oops, an error
Loading. Please wait.

Cataracts tab

version 2
version 2

Whole song

Interactive

by Drist
377 views 1 this week
no commentswrite comment
1 2 3 4 5
1 last vote to show rating
add to favorites
×
Save as Personal and add changes to this tab that will be seen only by you. Learn more ›
×
You can save this tab as Personal to edit and correct it or add notes. All changes will be seen only by you. Learn more »
launch autoscroll
font size
0
reset
how to read this tab
guitar tuner
edit
Autoscroll
slow
fast
+/-
esc
set tempo
stop
Author
Cataracts, by Drist

(.)-Palm Mute
(b)-Bend
(/)-Slide Up
(\)-Slide Down
(~) Tremolo

Intro (2X)

Guitar 1

E|--------2-3-2---2----------2-3-2---2--|--------2-3-2---2----------2-3-2---2--|
B|--------------3------------------3----|--------------3------------------3----|
G|--------------------------------------|--------------------------------------|
D|--------------------------------------|--------------------------------------|
A|00--0-0------------00--0-0------------|44--4-4------------44--4-4------------|
D|00--0-0------------00--0-0------------|44--4-4------------44--4-4------------|

Guitar 2

E|--------------------------------------|--------------------------------------|
B|--------2-3-2---2----------2-3-2---2--|--------2-3-2---2----------2-3-2---2--|
G|--------------2------------------2----|--------------2------------------2----|
D|--------------------------------------|--------------------------------------|
A|00--0-0------------00--0-0------------|44--4-4------------44--4-4------------|
D|00--0-0------------00--0-0------------|44--4-4------------44--4-4------------|


Verse 1

E|----------------------------------------------------------|
B|-----------------------------------3---3---------7---7----|
G|---------------------6---6---------2---2---------6---6----|
D|---------------------4---4---------0---0---------4---4----|
A|00--0-00-0-0-44--4-4-4-4-4-00--0-0---0-0-44--4-4---4-4----|
D|00--0-00-0-0-44--4-4---4---00--0-0---0---44--4-4---4------|
  ..  . .. . . ..  . .       ..  . .   .   ..  . .

E|----------------------------------------------------------|
B|-----------------------------------3---3---------7---7----|
G|---------------------6---6---------2---2---------6---6----|
D|---------------------4---4---------0---0---------4---4----|
A|00--0-00-0-0-44--4-4-4-4-4-00--0-0---0-0-44--4-4---4-4----|
D|00--0-00-0-0-44--4-4---4---00--0-0---0---44--4-4---4------|
  ..  . .. . . ..  . .       ..  . .   .   ..  . .


E|----------------------------------------------------------|
B|--------7b-------------------------3---3---------7---7----|
G|---------------------6---6---------2---2---------6---6----|
D|---------------------4---4---------0---0---------4---4----|
A|00--0-0------44--4-4-4-4-4-00--0-0---0-0-44--4-4---4-4----|
D|00--0-0------44--4-4---4---00--0-0---0---44--4-4---4------|
  ..  . ..     ..  . .       ..  . .   .   ..  . .

E|----------------------------------------------------------|
B|-----------------------------------3---3---------7---7----|
G|---------------------6---6---------2---2---------6---6----|
D|---------------------4---4---------0---0---------4---4----|
A|00--0-00-0-0-44--4-4-4-4-4-00--0-0---0-0-44--4-4---4-4----|
D|00--0-00-0-0-44--4-4---4---00--0-0---0---44--4-4---4------|
  ..  . .. . . ..  . .       ..  . .   .   ..  . .




Chorus

E|------------------------------------------------------------------|
B|------------------------------------------------------------------|
G|------------------------6--------------------------------6--------|
D|0---------------/4-----4---4-----0---------------/4-----4---4-----|
A|0---------------/4----4------4---0---------------/4----4------4---|
D|0---------------/4---4-----------0---------------/4---4-----------|



E|------------------------------------------------------------------|
B|------------------------------------------------------------------|
G|------------------------------------------------------------------|
D|0------/2-------/4------/5-------0------/2-------/4------/5-------|
A|0------/2-------/4------/5-------0------/2-------/4------/5-------|
D|0------/2-------/4------/5-------0------/2-------/4------/5-------|



Verse 2


E|----------------------------------------------------------|
B|-----------------------------------3---3---------7---7----|
G|---------------------6---6---------2---2---------6---6----|
D|---------------------4---4---------0---0---------4---4----|
A|00--0-00-0-0-44--4-4-4-4-4-00--0-0---0-0-44--4-4---4-4----|
D|00--0-00-0-0-44--4-4---4---00--0-0---0---44--4-4---4------|
  ..  . .. . . ..  . .       ..  . .   .   ..  . .

E|----------------------------------------------------------|
B|-----------------------------------3---3---------7---7----|
G|---------------------6---6---------2---2---------6---6----|
D|---------------------4---4---------0---0---------4---4----|
A|00--0-00-0-0-44--4-4-4-4-4-00--0-0---0-0-44--4-4---4-4----|
D|00--0-00-0-0-44--4-4---4---00--0-0---0---44--4-4---4------|
  ..  . .. . . ..  . .       ..  . .   .   ..  . .


E|----------------------------------------------------------|
B|--------7\-------------------------3---3---------7---7----|
G|---------------------6---6---------2---2---------6---6----|
D|---------------------4---4---------0---0---------4---4----|
A|00--0-0------44--4-4-4-4-4-00--0-0---0-0-44--4-4---4-4----|
D|00--0-0------44--4-4---4---00--0-0---0---44--4-4---4------|
  ..  . ..     ..  . .       ..  . .   .   ..  . .

E|----------------------------------------------------------|
B|-----------------------------------3---3---------7---7----|
G|---------------------6---6---------2---2---------6---6----|
D|---------------------4---4---------0---0---------4---4----|
A|00--0-00-0-0-44--4-4-4-4-4-00--0-0---0-0-44--4-4---4-4----|
D|00--0-00-0-0-44--4-4---4---00--0-0---0---44--4-4---4------|
  ..  . .. . . ..  . .       ..  . .   .   ..  . .


Guitar 2 Maintains this throughout verse 2


E|2-----------2-----------|
B|--3-2-3-2-3---3-2-3-2-3-|
G|------------------------|
D|------------------------|
A|------------------------|
D|------------------------|



Chorus again



Bridge (Acoustic)

Originally played with a delay, this works just as well
Play the part in parenthesis to simulate delay

E|----------------------------------------|----------------------------------------|
B|----------------------------------------|----------------------------------------|
G|8---(8)---6---(6)---4---(4)---6---(6)---|8---(8)---6---(6)---4---(4)---6---(6)---|
D|6---(6)---4---(4)---2---(2)---4---(4)---|6---(6)---4---(4)---2---(2)---4---(4)---|
A|----------------------------------------|6---------4---------2---------4---------|
D|----------------------------------------|----------------------------------------|


E|----------------------------------------|----------------------------------------|
B|----------------------------------------|7---(7)---5---(5)-----------------------|
G|8---(8)---6---(6)---4---(4)---6---(6)---|--------------------6---(6)---4---(4)---|
D|6---(6)---4---(4)---2---(2)---4---(4)---|----------------------------------------|
A|6---(6)---4---(4)---2---(2)---4---(4)---|----------------------------------------|
D|4---------2---------0---------2---------|----------------------------------------|


PLay twice



Solo (Guitar 1) [Possibly a little off]


E|----------------------------------------|-----------12-14-16-17-16-14----------|
B|----------------------------------------|--------14-------------------17-14-17-|
G|-/11----------------------------11-14---|--11-14-------------------------------|
D|------------------------6/11-14---------|--------------------------------------|
A|----------------------------------------|--------------------------------------|
D|----------------------------------------|--------------------------------------|


E|--14-12-10----12-10------------------------------|
B|-----------14-----------14~~~~~~~~~~~~~~-10-9----|
G|-------------------------------------------------|
D|-------------------------------------------------|
A|-------------------------------------------------|
D|-------------------------------------------------|


E|----------------12--------|----------------14-12---------|
B|9---10-9-----10-----------|9---10-9-----10-------14------|
G|--------------------------|------------------------------|
D|--------------------------|------------------------------|
A|--------------------------|------------------------------|
D|--------------------------|------------------------------|



E|-----------------------------------------|
B|14---15-14----15-10~~~~~~~~~~~14h17\-----|
G|-----------------------------------------|
D|-----------------------------------------|
A|-----------------------------------------|
D|-----------------------------------------|


Solo (Guitar 2, during part 1)


E|--------------------------------------|--------------------------------------|
B|--------------------------------------|--------------------------------------|
G|--------------------------------------|--------------------------------------|
D|44--4-4------------44--4-4------------|00--0-0------------00--0-0------------|
A|44--4-4------------44--4-4------------|00--0-0------------00--0-0------------|
D|44--4-4------------44--4-4------------|00--0-0------------00--0-0------------|


E|--------------------------------------|--------------------------------------|
B|--------------------------------------|--------------------------------------|
G|--------------------------------------|--------------------------------------|
D|44--4-4------------44--4-4------------|00--0-0------------00--0-0------------|
A|44--4-4------------44--4-4------------|00--0-0------------00--0-0------------|
D|44--4-4------------44--4-4------------|00--0-0------------00--0-0------------|



Post-Solo

Guitar 1                                                              Let Ring
E|------------------|------------------|------------------|------------------|3-----------------|
B|------------------|------------------|------------------|------------------|3-----------------|
G|------------------|------------------|------------------|------------------|0-----------------|
D|--4----2----0-----|--4----2----5-----|--4----2----5-----|--4----2----5-----|------------------|
A|--4----2----0-----|--4----2----5-----|--4----2----5-----|--4----2----5-----|------------------|
D|--4----2----0-----|--4----2----5-----|--4----2----5-----|--4----2----5-----|------------------|



Verse 3


E|----------------------------------------------------------|
B|-----------------------------------3---3---------7---7----|
G|---------------------6---6---------2---2---------6---6----|
D|---------------------4---4---------0---0---------4---4----|
A|00--0-00-0-0-44--4-4-4-4-4-00--0-0---0-0-44--4-4---4-4----|
D|00--0-00-0-0-44--4-4---4---00--0-0---0---44--4-4---4------|
  ..  . .. . . ..  . .       ..  . .   .   ..  . .

E|----------------------------------------------------------|
B|-----------------------------------3---3---------7---7----|
G|---------------------6---6---------2---2---------6---6----|
D|---------------------4---4---------0---0---------4---4----|
A|00--0-00-0-0-44--4-4-4-4-4-00--0-0---0-0-44--4-4---4-4----|
D|00--0-00-0-0-44--4-4---4---00--0-0---0---44--4-4---4------|
  ..  . .. . . ..  . .       ..  . .   .   ..  . .


E|----------------------------------------------------------|
B|--------7b-------------------------3---3---------7---7----|
G|---------------------6---6---------2---2---------6---6----|
D|---------------------4---4---------0---0---------4---4----|
A|00--0-0------44--4-4-4-4-4-00--0-0---0-0-44--4-4---4-4----|
D|00--0-0------44--4-4---4---00--0-0---0---44--4-4---4------|
  ..  . ..     ..  . .       ..  . .   .   ..  . .

E|----------------------------------------------------------|
B|-----------------------------------3---3---------7--------|
G|---------------------6---6---------2---2---------6--------|
D|---------------------4---4---------0---0---------4--------|
A|00--0-00-0-0-44--4-4-4-4-4-00--0-0---0-0-44--4-4----------|
D|00--0-00-0-0-44--4-4---4---00--0-0---0---44--4-4----------|
  ..  . .. . . ..  . .       ..  . .   .   ..  . .


Guitar 2 Maintains this throughout verse 3 as well, cuts off at the end


E|2-----------2-----------|
B|--3-2-3-2-3---3-2-3-2-3-|
G|------------------------|
D|------------------------|
A|------------------------|
D|------------------------|



Chorus again



Outro

              Let Ring
E|----------------------|
B|----------------------|
G|----------------------|
D|-----------4----------|
A|--0--0--0--4----------|
D|--0--0--0--4----------|
    .  .  .

            
            
Suggest correction
Creating personal tab
Creating personal tab
You can edit any tab online and save it as your Personal.

You can edit, replace or remove any tab part or add personal notes – all changes will be seen only by you.

Personal tabs can be accessed anytime from any device, even offline.
Learn more »
Give kudos to tab author, rate the tab!
1 2 3 4 5
comments
print report bad tab
guest
You may want to rate the tab now too:
select rating
Wanna post a correction for this tab? Suggest correction