Oops, an error
Loading. Please wait.

Auf Der Flucht tab

1,122 views 3 this week
1 commentread comment
1 2 3 4 5
3 more votes to show rating
add to favorites
×
Save as Personal and add changes to this tab that will be seen only by you. Learn more ›
×
You can save this tab as Personal to edit and correct it or add notes. All changes will be seen only by you. Learn more »
launch autoscroll
font size
0
reset
how to read this tab
guitar tuner
edit
Autoscroll
slow
fast
+/-
esc
set tempo
stop
Author
Difficulty
-------------------------------------------------------------------------------
                             Auf der Flucht - Dritte Wahl
-------------------------------------------------------------------------------
Tabbed by: Jarom!r
Email: lionfalcon@web.de

Tuning: Standart 


intro:

guitar 1
e|---------------------------------------------------------------------------|
B|---------------------------------------------------------------------------|
G|---------------------------------------------------------------------------|
D|-5--5-5--7-5---------------------------------------------------------------|
A|-------------7--8--7-8--7--------------------------------------------------|
E|--------------------------8------------------------------------------------|

guitar 2 (verse)
   C                  C                 F                 C     
e|----------3-----------------0-----------------1------------------0---------||
B|-------1-----1-----------1-----1-----------1-----1------------1-----1------||
G|----0-----------0-----0-----------0-----2-----------2------0-----------0--o||
D|-------------------------------------3------------------------------------o||
A|-3-----------------3-----------------------------------3-------------------||
E|---------------------------------------------------------------------------||


dieses pattern wird waehrend vers I & II fortgesetzt
this pattern is repeated during the verses I & II




Vers I

C                 C           F                 C
Langsam graut der Morgen, die Nacht sie will es so 
Du bist auf dem Weg ins Land, der Freiheit irgendwo 
Es war ein schwerer Abschied, doch war uns lang bewußt 
Es kommt einmal der Tag, an dem du weiterziehen mußt 

Refrain:
Auch Wenn ich jetzt traurig bin, denke ich daran 
Was werden wir erst feiern, wenn ich nachkomme irgendwann

Vers II:

Viele gute Tage haben wir gesehen 
Manche schwere Stunde mussten wir bestehen 
Es bleibt nurnoch zu sagen, es war' ne schoene Zeit 
Hab Dank und gute Reise, bring dich in sicherheit 

Refrain:
F                   G            Cadd3       C
Auch Wenn ich jetzt traurig bin, denke ich daran 
Was werden wir erst feiern, wenn ich nachkomme irgendwann


[Interlude; hier wird die melodie aus dem Intro gespielt]


Wiederholung Vers I:

Langsam graut der Morgen, der Tag er will es so 
Du bist auf dem Weg ins Land, der Freiheit irgendwo


_____________________________________________________________________________________________

beim refrain wird das gleiche schlagmuster verwendet wie bei der akkordfolge in den versen. 
ich muss allerdings dazu sagen, dass ich mir beim refrain nicht sicher bin ob die akkorde 

passen. daher wuerde ich mich an dieser stelle ueber verbesserungsvorschlaege an meine email 

adresse freuen: lionfalcon@web.de

during the refrain the same pattern as in the verses is used. but i'll have to add that i'm not 

quite sure if the chords match a hundret percent, so it would be nice if you guys would send 

suggestions to my email address: lionfalcon@web.de
Suggest correction
Creating personal tab
Creating personal tab
You can edit any tab online and save it as your Personal.

You can edit, replace or remove any tab part or add personal notes – all changes will be seen only by you.

Personal tabs can be accessed anytime from any device, even offline.
Learn more »
Give kudos to tab author, rate the tab!
1 2 3 4 5
comments
print report bad tab
1 comment total.
0 reply
Jarom!r 223 Aug 30, 2010 10:30 AM

Sry there is a mistake. during the C chord you dont pick the 4th fret but the 3rd on the e-string. I've already sent a corrected version but it has been rejected :P

guest
You may want to rate the tab now too:
select rating
Wanna post a correction for this tab? Suggest correction