Oops, an error
Loading. Please wait.

Das Sieht Gut Aus tab

170 views 1 this week
no commentswrite comment
1 2 3 4 5
3 more votes to show rating
add to favorites
×
Save as Personal and add changes to this tab that will be seen only by you. Learn more ›
×
You can save this tab as Personal to edit and correct it or add notes. All changes will be seen only by you. Learn more »
launch autoscroll
font size
0
reset
how to read this tab
guitar tuner
edit
Autoscroll
slow
fast
+/-
esc
set tempo
stop
Author
-------------------------------------------------------------------------------
                             Das sieht gut aus - Dritte Wahl
-------------------------------------------------------------------------------

Album: Gib Acht!
Tabbed by: veguitarier
E-mail: since1909@gmx.at

Tuning: Standard

Dritte Wahl have one guitarist, a second guitar only occurs in the background 
during the solo of this song, playing the verse twice. Since this is the only
part with a second guitar and it's nothing different from the verse, I didn't
add an extra line for it. 


Intro:

   B      A         E
e||------|---------|----|--------|
B||------|---------|9-9-|9-9-9-9-|
G||11-11-|9--9--9--|9-9-|9-9-9-9-|
D||13-13-|10-10-10-|9-9-|9-9-9-9-| (3x)
A||14-14-|12-12-12-|----|--------|
E||------|---------|----|--------|
   v xv x v  ^  v   ^x^x ^ v ^ vx

   G      A         E
  |------|---------|----||
  |------|---------|----||
  |7--7--|9--9--9--|9---||
  |9--9--|10-10-10-|9---||
  |10-10-|12-12-12-|7---||
  |------|---------|----||
   v xv x v  ^  v   ^x


Verse:

   B      A         E
e||------|---------|----|--------|
B||------|---------|9-9-|9-9-9-9-|
G||11-11-|9--9--9--|9-9-|9-9-9-9-|
D||13-13-|10-10-10-|9-9-|9-9-9-9-| (3x)
A||14-14-|12-12-12-|----|--------|
E||------|---------|----|--------|
   v xv x v  ^  v   ^x^x ^ v ^ vx

   G      A         E
  |------|---------|----|--------||
  |------|---------|----|--------||
  |7--7--|9--9--9--|9-9-|9-9-9-9-||
  |9--9--|10-10-10-|9-9-|9-9-9-9-||
  |10-10-|12-12-12-|7-7-|7-7-7-7-||
  |------|---------|----|--------||
   v xv x v  ^  v   ^x^x ^ v ^ vx


Chorus:
    
   C#               A                E                B       G# B G#
e||----------------|----------------|----------------|---------------|
B||----------------|----------------|----------------|---------------|
G||6-6-6666-6-6666-|----------------|----------------|4-4-4444-------|
D||6-6-6666-6-6666-|7-7-7777-7-7777-|2-2-2222-2-2222-|4-4-4444-6-9-6-|
A||4-4-4444-4-4444-|7-7-7777-7-7777-|2-2-2222-2-2222-|2-2-2222-6-9-6-|
E||----------------|5-5-5555-5-5555-|0-0-0000-0-0000-|---------4-7-4-|
   v v v^v^ ^ ^v^v  v v v^v^ ^ ^v^v  v v v^v^ ^ ^v^v  v v v^v^ v v v

   C#               A                E                B      A
  |----------------|----------------|----------------|----------------||
  |----------------|----------------|----------------|----------------||
  |6-6-6666-6-6666-|----------------|----------------|4-4-4447-7-7777-||
  |6-6-6666-6-6666-|7-7-7777-7-7777-|2-2-2222-2-2222-|4-4-4447-7-7777-||
  |4-4-4444-4-4444-|7-7-7777-7-7777-|2-2-2222-2-2222-|2-2-2227-7-7777-||
  |----------------|5-5-5555-5-5555-|0-0-0000-0-0000-|-------5-5-5555-||
   v v v^v^ ^ ^v^v  v v v^v^ ^ ^v^v  v v v^v^ ^ ^v^v  v v v^v^ ^ ^v^v 


Break:

   B   A   E        G#  A  E         B   A  G# E      G   A  E   
e||----------------|----------------|----------------|----------------||
B||----------------|----------------|----------------|----------------||
G||4---------------|----------------|4-4-------------|----------------||
D||4---7---2-------|6-6-7772--------|4-4-7776-2------|5-5-7772--------||
A||2---7---2-------|6-6-7772--------|2-2-7776-2------|5-5-7772--------||
E||----5---0-------|4-4-5550--------|----5554-0------|3-3-5550-4h5p4p0||
   vx  vx  vx       vxvxv^v^x        vxvxv^v^xvx      vxvxv^v^x


Solo:

e||---|--------|----------|------------|------------|-------------|
B||---|--------|------7---|------------|-------10b12|10b12--------|
G||---|--------|---79--9-7|9-7---9-7---|------------|-------------|
D||797|9-------|79--------|---9-7------|9-----------|-------------|
A||---|--------|----------|------------|------------|-------------|
E||---|--------|----------|------------|------------|-------------|

  |-10-7------------|--------|--------|--------|--------|--------|----------|
  |------10-7-------|--------|--------|--------|--------|-----5--|----------|
  |-----------9-7---|97-7----|--------|--------|--------|--474-74|----------|
  |---------------9-|--9-97--|--------|-47-7---|6-----47|47------|-------79-|
  |-----------------|------7-|-------5|7-------|----57--|--------|----------|
  |-----------------|-------7|-----57-|--------|--57----|--------|7\0-------|

  |--------|--------|--------|---------||
  |7-------|9-7--77-|7-7-7-7-|7--------||
  |--------|--------|--------|--97-----||
  |9-9--79-|9-9-----|--------|-----97\0||
  |--------|--------|--------|---------||
  |--------|--------|--------|---------||
      x


Outro:

   B    A    B
e||----|----|----||
B||----|----|----||
G||----|----|----||
D||9---|7---|9---||
A||9---|7---|9---||
E||7---|5---|7---||
   ^    ^    ^


Song Structure: Intro
                Verse (4x)
                Chorus
                Verse (4x)
                Chorus
                Break
                Solo
                Verse (2x)
                Chorus
                Verse
                Intro
                Outro


************************************

| /   slide up
| \   slide down
| \\\ pick slide down
| h   hammer-on
| p   pull-off
| ~   vibrato
| +   harmonic
| x   Mute note
| b   Bend
| pb  Pre-bend
| br  Bend release
| pbr Pre-bend release
| brb Bend release bend
| v   downstroke
| ^   upstroke

************************************

            
            
Suggest correction
Creating personal tab
Creating personal tab
You can edit any tab online and save it as your Personal.

You can edit, replace or remove any tab part or add personal notes – all changes will be seen only by you.

Personal tabs can be accessed anytime from any device, even offline.
Learn more »
Give kudos to tab author, rate the tab!
1 2 3 4 5
comments
print report bad tab
guest
You may want to rate the tab now too:
select rating
Wanna post a correction for this tab? Suggest correction