Oops, an error
Loading. Please wait.

My Sweet Annette Bass Tab

1,684 views 3 this week
no commentswrite comment
1 2 3 4 5
2 more votes to show rating
add to favorites
launch autoscroll
font size
0
reset
guitar tuner
Autoscroll
slow
fast
+/-
esc
set tempo
stop
Help us to improve Ultimate-Guitar.com Take our survey!
×
Author
Difficulty
novice
G--------------------------------------|
D-----------3-3------5-----------------|
A-1-0--5-5-1-1--3-3-3-3----------------|
E-----3-3------1-1---------------------|

G--------------------------------------|
D-----------3-3------5-----------------|
A-1-0--5-5-1-1--3-3-3-3----------------|
E-----3-3------1-1---------------------|
When it breaks down at 2:25,it goes like
this 3 times,and then goes back to normal
afterwords until the end when it does this
pattern again but only once.
G--------------------------------------|
D--------------------------------------|
A-1-0------1---------3-----------------|
E-----3---------1----------------------|

G--------------------------------------|
D--------------------------------------|
A-1-0------1---------3-----------------|
E-----3---------1----------------------|

G--------------------------------------|
D--------------------------------------|
A-1-0------1---------3-----------------|
E-----3---------1----------------------|
Im not sure if this is exactly how they
play it,but it sounds good otherwise.
Suggest correction
Give kudos to tab author, rate the tab!
1 2 3 4 5
comments
print report bad tab
guest
You may want to rate the tab now too:
select rating
Wanna post a correction for this tab? Suggest correction