Oops, an error
Loading. Please wait.

Sink Hole ukulele

108 views 1 this week
1 commentread comment
1 2 3 4 5
3 more votes to show rating
add to favorites
×
Save as Personal and add changes to this tab that will be seen only by you. Learn more ›
×
You can save this tab as Personal to edit and correct it or add notes. All changes will be seen only by you. Learn more »
launch autoscroll
font size
0
reset
transpose
0
reset
display chords
guitar tuner
edit
Autoscroll
slow
fast
+/-
esc
set tempo
stop
Difficulty
Strumming
There is no strumming pattern for this song yet. and get +5 IQ
                               X4
|-------------------------------|
|-------------------------------|
|.-----------------------------.|
|.--------------3--2-----------.|
|---------3--2--------3--2------|
|---0--3--------------------0---|
    Em

D    C    Em    F

|-------------------------------|
|-------------------------------|
|.-----------------------------.|
|.--------------3--2-----------.|
|---------3--2--------3--2------|
|---0--3--------------------0---|
    Em

(Walk to G between the Em and A chords)

     Em
I've always been a religious man,
     A
I've always been a religious man
              Em
But I met the banker and it felt like sin
   A                 Em
He turned my bailout down
    Em
The Banker Man, he let into me
    A
Let into me, let into me
    Em
The Banker Man, he let into me
    A               Em
And spread my name around
Em
He thinks I ain't got a lick of sense
         A
'Cause I talk slow and my money's spent
       Em
Now, I ain't the type to hold it against
       A                  Em
But he better stay off my farm
       Em
'Cause it was my Daddy's and his Daddy's before
        A
And his Daddy's before and his Daddy's before
Em
Five generations and an unlocked door
      A              Em
And a loaded burglar alarm.

|-------------------------------|
|-------------------------------|
|.-----------------------------.|
|.--------------3--2-----------.|
|---------3--2--------3--2------|
|---0--3--------------------0---|
    Em

Em
Lots of pictures of my purdy family
A
Lots of pictures of my purdy family
Em
Lots of pictures of my purdy family
       A                 Em
In the house where I was born.
Em
House has stood through five tornadoes,
A
Droughts, floods, and five tornadoes.
    Em
I'd rather wrestle an alligator
        A                 Em
Than to face the Banker's scorn
       Em
'Cause he won't even look me in the eye
        A
He just takes my land and apologize,
     Em
With pen, paper, and a friendly smile
   A                Em
He says the deed is done.
    Em
The sound you hear is my Daddy spinning
    A
The sound you hear is my Daddy spinning
    Em
The sound you hear is my Daddy spinning
     A               Em
Over what the Banker done.

|-------------------------------|
|-------------------------------|
|.-----------------------------.|
|.--------------3--2-----------.|
|---------3--2--------3--2------|
|---0--3--------------------0---|
    Em

D
Think I'll invite him for some pot roast beef
    C
And mashed potatoes and sweet tea
Em
Follow it up with some banana pudding
      F
And a walk around the farm
Em
Show him the view from McGee Town Hill
        A
Let him stand in my shoes and see how it feels
   Em
To lose the last thing on earth that's real
           A                Em
I'd rather lose my legs and arms

Em
Bury his body in the old sink hole
A
Bury his body in the old sink hole
Em
Bury his body in the old sink hole
      A             Em
Under cold November sky
     Em
Then damned if I wouldn't go to church on Sunday
A
Damned if I wouldn't go to church on Sunday
Em
Damned if I wouldn't go to church on Sunday
             A               Em
And look the Preacher in the eye.

            
            
Suggest correction
Creating personal tab
Creating personal tab
You can edit any tab online and save it as your Personal.

You can edit, replace or remove any tab part or add personal notes – all changes will be seen only by you.

Personal tabs can be accessed anytime from any device, even offline.
Learn more »
Give kudos to tab author, rate the tab!
1 2 3 4 5
comments
print report bad tab
1 comment total.
0 reply
phungi 10 Jul 28, 2014 01:31 PM

The chords posted are for a guitar. Here are the ukulele tabs:

(GCAE tuning)

Intro

Em (slide into riff, but use open G string for first note)

|---------------8--7-------------|
|--------8--7---------8--7------|
|-----7-------------------------|
|--0------------------------0----|

4-chord sequence

D Cadd9 Em F
|--------| |-----3---| |--2-----| |--------|
|-2------| |---------| |----3---| |-1------|
|-2------| |--2------| |------4-| |--------|
|-2------| |---------| |--------| |---2----|

Main Verses (walk from Em to A as you would on guitar)

Em A
|--2-----| |--------|
|----3---| |--------|
|------4-| |-1------|
|--------| |--2-----|

guest
Wanna post a correction for this tab? Suggest correction