Oops, an error
Loading. Please wait.

Bullet Train To Vegas tab

3,278 views 3 this week
1 commentread comment
1 2 3 4 5
3 more votes to show rating
add to favorites
×
Save as Personal and add changes to this tab that will be seen only by you. Learn more ›
×
You can save this tab as Personal to edit and correct it or add notes. All changes will be seen only by you. Learn more »
launch autoscroll
font size
0
reset
how to read this tab
guitar tuner
edit
Autoscroll
slow
fast
+/-
esc
set tempo
stop
Author
Difficulty
This is based mostly off of the live version of the song.  Yes, I am aware that there a 
of noodling crap that I didn't get.  It's so inconsistant that if you actually have more 
one guitarist, you could probably wing it and be fine.

x = left-hand mute
p = pull-off
b = bend
r = release
~ = let ring
(#) = ghost note

Intro

e--------|-x-x-x-x-x-x-x-x--|--------|--------|
B--------|-x-x-x-x-x-x-x-x--|--------|--------|
G--------|-x-x-x-x-x-x-x-x-.|.-------|-------.|
D--------|-x-x-x-x-x-x-x-x-.|.-------|-------.|
A--------|-x-x-x-x-x-x-x-x--|--------|--------|
E-0~~~~~-|-x-x-x-x-x-x-x-x--|-0~~~~~-|-0~~~~~-|

e-----------------|------------------|
B-----------------|------------------|
G---9p(0)-9p(0)---|---9p(0)-9p(0)---.|
D---x-----x-------|---x-----x-------.|
A---7p(0)-7p(0)---|---7p(0)-7p(0)----|
E-0~~-----------0-|-0~~-----------0--|

e-12~~~~-|-12~~~~--|
B-x------|-x-------|
G-9b10r9-|-9b10r9-.|
D--------|--------.|
A--------|---------|
E--------|---------|

e-----------------|------------------|
B-----------------|------------------|
G---9p(0)-9p(0)---|---9p(0)-9p(0)---.|
D---x-----x-------|---x-----x-------.|
A---7p(0)-7p(0)---|---7p(0)-7p(0)----|
E-0~~-----------0-|-0~~-----------0--|


Verse

e----------------|-----------------|
B----------------|-----------------|
G-9~~~~~~~-~~~~~~|~~~~~~~~~~~~~~~~.|
D-x--------------|----------------.|
A-7~~~~~~~~~~~~~~|~~~~~~~~~~~~~~~~-|
E-0~~~~~~~~~~~~~~|~~~~~~~~~~~~~~~~-|

We ride the bullet train to Vegas
The minute that we blow this burb
Just as far as it'll take us
Pay the man and ride the turd

e-------------|-------------------|
B-------------|-------------------|
G-9~~~~~~~~~~-|-x-x-x-x-x-x-x-x-.-|
D-x-----------|-x-x-x-x-x-x-x-x-.-|
A-7~~~~~~~~~~-|-x-x-x-x-x-x-x-x---|
E-0~~~~~~~~~~-|-x-x-x-x-x-x-x-x---|

Sopping wet,   we're stinking drunk we'll
bob for tokens up and down

e----------------|-----------------|
B----------------|-----------------|
G-9~~~~~~~-~~~~~~|~~~~~~~~~~~~~~~~.|
D-x--------------|----------------.|
A-7~~~~~~~~~~~~~~|~~~~~~~~~~~~~~~~-|
E-0~~~~~~~~~~~~~~|~~~~~~~~~~~~~~~~-|

pull up a dick and suck away
gotta milk that sacred...

e-----------------|------------------|
B-----------------|------------------|
G---9p(0)-9p(0)---|---9p(0)-9p(0)----|
D---x-----x-------|---x-----x--------|
A---7p(0)-7p(0)---|---7p(0)-7p(0)----|
E-0~~-----------0-|-0~~-----------0--|

..cow               now

e-----------------|------------------|
B-----------------|------------------|
G---9p(0)-9p(0)---|---9p(0)-9p(0)----|
D---x-----x-------|---x-----x--------|
A---7p(0)-7p(0)---|---7p(0)-7p(0)----|
E-0~~-----------0-|-0~~-----------0--|

  now               now

Chorus (this part I'm still a little shaky on)

e-7~~~~~|~~~~~|-8~~~~~|~~~~~|-------|-----|
B-x-----|-----|-x-----|-----|-------|-----|
G-4~~~~~|~~~~~|-5~~~~~|~~~~~|-7~~~~~|~~~~~|
D-------|-----|-------|-----|-x-----|-----|
A-------|-----|-------|-----|-5~~~~~|~~~~~|
E-------|-----|-------|-----|-------|-----|

  I             can't        wait     to come

e-----------------|------------------|
B-----------------|------------------|
G---9p(0)-9p(0)---|---9p(0)-9p(0)---.|
D---x-----x-------|---x-----x-------.|
A---7p(0)-7p(0)---|---7p(0)-7p(0)----|
E-0~~-----------0-|-0~~-----------0--|

  home              home

e-7~~~~~|~~~~~|-8~~~~~|~~~~~|-------|-----|
B-x-----|-----|-x-----|-----|-------|-----|
G-4~~~~~|~~~~~|-5~~~~~|~~~~~|-7~~~~~|~~~~~|
D-------|-----|-------|-----|-x-----|-----|
A-------|-----|-------|-----|-5~~~~~|~~~~~|
E-------|-----|-------|-----|-------|-----|

  I             can't        wait     to come

e-----------------|------------------|
B-----------------|------------------|
G---9p(0)-9p(0)---|---9p(0)-9p(0)---.|
D---x-----x-------|---x-----x-------.|
A---7p(0)-7p(0)---|---7p(0)-7p(0)----|
E-0~~-----------0-|-0~~-----------0--|

  home              home

Play the verse and chorus all the way through

end on:

e------|------|------|-------||
B------|------|------|-------||
G------|------|------|-------||
D------|------|------|-------||
A------|------|------|-------||
E-0~~~-|-0~~~-|-0~~~-|-0-----||

http://www.swamirecords.com/jehu.html

            
            
Suggest correction
Creating personal tab
Creating personal tab
You can edit any tab online and save it as your Personal.

You can edit, replace or remove any tab part or add personal notes – all changes will be seen only by you.

Personal tabs can be accessed anytime from any device, even offline.
Learn more »
Give kudos to tab author, rate the tab!
1 2 3 4 5
comments
print report bad tab
1 comment total.
0 reply
Thunder2221 385 Dec 14, 2011 09:41 AM

I have my way I think the verse goes; probably wrong but you know - sounds okay to me.

e|-----0--------/12---
b|-------0---------12-
G|--------------------
D|--------------------
A|--------------------
E|-0-0-----0-0-0------

Just mess around with the 0's on low E for it.

guest
You may want to rate the tab now too:
select rating
Wanna post a correction for this tab? Suggest correction