Oops, an error
Loading. Please wait.

Fly Me Courageous Bass Tab

version 1
version 1

Whole song

Interactive

1,675 views 1 this week
1 commentread comment
1 2 3 4 5
please rate
add to favorites
launch autoscroll
font size
0
reset
guitar tuner
Tab Pro tools
  • play this tab
  • loop segment
  • change instrument
  • show fretboard
  • metronome
×
Best way to learn
"Fly Me Courageous"
Autoscroll
slow
fast
+/-
esc
set tempo
stop
Contributor
Difficulty
novice
Fly Me Courageous
by Drivin' N' Cryin'

Standard Tuning  --  Time change at Outro


  1 (4/4 Time)
G|------------------------|------------------------|------------------------|
D|------------------------|------------------------|------------------------|
A|------------------------|------------5-----------|------------------------|
E|------------------------|------------------5-----|2--2--------2--2------0-|

  4
G|------------------------|------------------------|------------------------|
D|------------------------|------------------------|------------------------|
A|------------5-----------|------------------------|------------5-----------|
E|2--2--------------5-----|2--2--------2--2------0-|2--2--------------5-----|

  7
G|------------------------|------------------------|------------------------|
D|------------------------|------------------------|------------------------|
A|------------------------|------------5-----------|------------------------|
E|2--2--------2--2------0-|2--2--------------5-----|2--2--2--2--2--2--2--2--|

  10
G|------------------------|------------------------|------------------------|
D|------------------------|------------------------|---------------2-4p2----|
A|------------------------|------------------------|------------2h4-----4-2-|
E|2--2--2--2--2--2--2--2--|2--2--2--2--2--2--2--2--|2--2--2--2--------------|

  13
G|------------------------|------------------------|------------------------|
D|------------------------|------------------------|------------------------|
A|------------------------|------------------------|------------------------|
E|2--2--2--2--2--2--2--2--|2--2--2--2--2--2--2--2--|2--2--2--2--2--2--2--2--|

  16
G|------------------------|------------------------|------------------------|
D|------------------------|------------------------|------------------------|
A|------------------------|------------------------|------------5-----------|
E|2--2--2--2--2--2-/14\---|2--2--------2--2------0-|2--2--------------5-----|

  19
G|------------------------|------------------------|------------------------|
D|------------------------|------------------------|------------------------|
A|------------------------|------------5-----------|------------------------|
E|2--2--------2--2------0-|2--2--------------5-----|2--2--------2--2------0-|

  22
G|------------------------|------------------------|------------------------|
D|------------------------|------------------------|------------------------|
A|------------5-----------|------------------------|------------5-----------|
E|2--2--------------5-----|2--2--------2--2------0-|2--2--------------5-----|

  25
G|------------------------|------------------------|------------------------|
D|------------------------|------------------------|------------------------|
A|------------------------|------------------------|------------------------|
E|2--2--2--2--2--2--2--2--|2--2--2--2--2--2--2--2--|2--2--2--2--2--2--2--2--|

  28
G|------------------------|------------------------|------------------------|
D|--------------2-2-4p2---|------------------------|------------------------|
A|-----------2h4-------4-2|------------------------|------------------------|
E|2--2--2--2--------------|2--2--2--2--2--2--2--2--|2--2--2--2--2--2--2--2--|

  31
G|------------------------|------------------------|------------------------|
D|------------------------|------------------------|------------------------|
A|------------------------|------------------------|2-----------------------|
E|2--2--2--2--2--2--2--2--|2--2--2--2--2--2--2--2--|--------------------14\-|

  34
G|------------------------|------------------------|------------------------|
D|------------------------|---------------------2--|------------------------|
A|------------------------|------------------2h4---|2--2--2--2--2--2--2--2--|
E|2--2--------2--2--------|2--2--------2--2--------|------------------------|

  37
G|------------------------|------------------------|------------------------|
D|------------------------|------------------------|------------------------|
A|2--2--2--2--2--2--2--2--|------------------------|---------------------0--|
E|------------------------|2--2--------2--2--------|2--2--------2--2--3-----|

  40
G|------------------------|------------------------|------------------------|
D|------------------------|------------------------|------------------------|
A|2--2--2--2--2--2--2--2--|2--2--2--2--2--2--2--2--|0--0--0--0--0--0--0--0--|
E|------------------------|------------------------|------------------------|

  43
G|------------------------|------------------------|------------------------|
D|------------------------|------------------------|------------------------|
A|5-----------5-----------|------------------------|------------------------|
E|------5-----------5-----|2--2--------2--2--------|2--2--------2--2---/14\-|

  46                                   Fly me
G|------------------------|------------------------|------------------------|
D|------------------------|------------------------|------------------------|
A|------------------------|------------5-----------|------------------------|
E|2--2--------2--2------0-|2--2--------------5-----|2--2--------2--2------0-|

  49	      Courageous   Guitar Solo
G|------------------------|------------------------|------------------------|
D|------------------------|------------------------|------------------------|
A|------------5-----------|------------------------|------------------------|
E|2--2--------------5-----|2--2--2--2--2--2--2--2--|2--2--2--2--2--2--2--2--|

  52
G|------------------------|------------------------|------------------------|
D|------------------------|---------------2-4p2----|------------------------|
A|------------------------|------------2h4-----4-2-|------------------------|
E|2--2--2--2--2--2--2--2--|2--2--2--2--------------|2--2--2--2--2--2--2--2--|

  55
G|------------------------|------------------------|------------------------|
D|------------------------|------------------------|--------------2-2-4p2---|
A|------------------------|------------------------|-----------2h4-------4-2|
E|2--2--2--2--2--2--2--2--|2--2--2--2--2--2--2--2--|2--2--2--2--------------|

  58
G|------------------------|------------------------|------------------------|
D|------------------------|------------------------|------------------------|
A|------------------------|------------------------|------------------------|
E|2--2--2--2--2--2--2--2--|2--2--2--2--2--2--2--2--|2--2--2--2--2--2--2--2--|

  61
G|------------------------|------------------------|------------------------|
D|--------------2-2-4p2---|------------------------|------------------------|
A|-----------2h4-------4-2|------------------------|------------------------|
E|2--2--2--2--------------|2--2--2--2--2--2--2--2--|2--2--2--2--2--2--2--2--|

  64
G|------------------------|------------------------|------------------------|
D|------------------------|------------------------|------------------------|
A|------------------------|------------------------|------------------------|
E|2--2--2--2--2--2--2--2--|2--2--2--2--2--2-/14\---|2--2--------2--2------0-|

  67
G|------------------------|------------------------|------------------------|
D|------------------------|------------------------|------------------------|
A|------------5-----------|------------------------|------------5-----------|
E|2--2--------------5-----|2--2--------2--2------0-|2--2--------------5-----|

  70
G|------------------------|------------------------|------------------------|
D|------------------------|------------------------|------------------------|
A|------------------------|------------5-----------|------------------------|
E|2--2--------2--2------0-|2--2--------------5-----|2--2--------2--2------0-|

  73
G|------------------------|------------------------|------------------------|
D|------------------------|------------------------|------------------------|
A|------------5-----------|------------------------|------------5-----------|
E|2--2--------------5-----|2--2--------2--2------0-|2--2--------------5-----|

  76                                               ║: 78 (3/4 Time)
G|------------------------|------------------------|------------------------|
D|------------------------|------------------------|----------------2-------|
A|------------------------|------------5-----------|--------4---------------|
E|2--2--------2--2------0-|2--2--------------5-----|2-----------------------|

  
G|------------------------|------------------------|------------------------|
D|----------------2-------|----------------4-------|2-----------------------|
A|--------4---------------|--------4---------------|--------4-------2-------|
E|2-----------------------|2-----------------------|------------------------|

  (2/4)        Repeat 4X :║ 98 (4/4)
G|------------------------|------------------------|
D|------------------------|------------------------|
A|5-----------------------|------------------------|
E|------------5-----------|2--2--------------------|
comments
We did not receive enough feedback on this tab! Please rate:
print report bad tab
1 2 3 4 5
1 comment total.
0 reply
Growlnutz wrote on January 20 2013, 03:28 pm

Excellent work. Spot on mate! Keep it up. I'd really like to see the tab for the Beatles - We Can Work It Out. Is this something you can help me with? Cheers.

I want to post or [tab]
guest
You may want to rate the tab now too:
select rating
Please do not post tabs as comments. Select "correction" instead!